999
dxfrw 0.6.3
  0
SECTION
  2
HEADER
  9
$ACADVER
  1
AC1021
  9
$DWGCODEPAGE
  3
ANSI_1252
  9
$INSBASE
 10
0
 20
0
 30
0
  9
$EXTMIN
 10
-1470
 20
-610
 30
0
  9
$EXTMAX
 10
2300.018353910665
 20
1596.4957554134
 30
0
  9
$LIMMIN
 10
0
 20
0
  9
$LIMMAX
 10
22
 20
17
  9
$ORTHOMODE
 70
    0
  9
$REGENMODE
 70
    1
  9
$FILLMODE
 70
    1
  9
$QTEXTMODE
 70
    0
  9
$MIRRTEXT
 70
    0
  9
$LTSCALE
 40
1.21
  9
$ATTMODE
 70
    0
  9
$TEXTSIZE
 40
2.5
  9
$TRACEWID
 40
15.68
  9
$TEXTSTYLE
  7
STANDARD
  9
$CLAYER
  8
frame
  9
$CELTYPE
  6
BYLAYER
  9
$CECOLOR
 62
  256
  9
$CELTSCALE
 40
1
  9
$DISPSILH
 70
    0
  9
$DIMSCALE
 40
1
  9
$DIMASZ
 40
0.1875
  9
$DIMEXO
 40
0.0625
  9
$DIMDLI
 40
0.836
  9
$DIMRND
 40
0
  9
$DIMDLE
 40
0
  9
$DIMEXE
 40
0.125
  9
$DIMTP
 40
0.001
  9
$DIMTM
 40
0.001
  9
$DIMTXT
 40
0.15625
  9
$DIMCEN
 40
0.198
  9
$DIMTSZ
 40
0
  9
$DIMTOL
 70
    1
  9
$DIMLIM
 70
    0
  9
$DIMTIH
 70
    0
  9
$DIMTOH
 70
    0
  9
$DIMSE1
 70
    0
  9
$DIMSE2
 70
    0
  9
$DIMTAD
 70
    1
  9
$DIMZIN
 70
    8
  9
$DIMBLK
  1
_FILLED
  9
$DIMASO
 70
    1
  9
$DIMSHO
 70
    1
  9
$DIMPOST
  1

  9
$DIMAPOST
  1

  9
$DIMALT
 70
    0
  9
$DIMALTD
 70
    3
  9
$DIMALTF
 40
25.4
  9
$DIMLFAC
 40
1
  9
$DIMTOFL
 70
    1
  9
$DIMTVP
 40
0
  9
$DIMTIX
 70
    0
  9
$DIMSOXD
 70
    0
  9
$DIMSAH
 70
    0
  9
$DIMBLK1
  1

  9
$DIMBLK2
  1

  9
$DIMSTYLE
  2
Standard
  9
$DIMCLRD
 70
    0
  9
$DIMCLRE
 70
    0
  9
$DIMCLRT
 70
    0
  9
$DIMTFAC
 40
1
  9
$DIMGAP
 40
0.09
  9
$DIMJUST
 70
    0
  9
$DIMSD1
 70
    0
  9
$DIMSD2
 70
    0
  9
$DIMTOLJ
 70
    0
  9
$DIMTZIN
 70
    8
  9
$DIMALTZ
 70
    0
  9
$DIMALTTZ
 70
    0
  9
$DIMUPT
 70
    0
  9
$DIMDEC
 70
    3
  9
$DIMTDEC
 70
    2
  9
$DIMALTU
 70
    2
  9
$DIMALTTD
 70
    3
  9
$DIMTXSTY
  7
standard
  9
$DIMAUNIT
 70
    0
  9
$DIMADEC
 70
    0
  9
$DIMALTRND
 40
0
  9
$DIMAZIN
 70
    0
  9
$DIMDSEP
 70
    0
  9
$DIMATFIT
 70
    3
  9
$DIMFRAC
 70
    0
  9
$DIMLDRBLK
  1
STANDARD
  9
$DIMLUNIT
 70
    2
  9
$DIMLWD
 70
   -2
  9
$DIMLWE
 70
   -2
  9
$DIMTMOVE
 70
    0
  9
$DIMFXL
 40
1
  9
$DIMFXLON
 70
    0
  9
$DIMJOGANG
 40
0.7854
  9
$DIMTFILL
 70
    0
  9
$DIMTFILLCLR
 70
    0
  9
$DIMARCSYM
 70
    0
  9
$DIMLTYPE
  6

  9
$DIMLTEX1
  6

  9
$DIMLTEX2
  6

  9
$LUNITS
 70
    2
  9
$LUPREC
 70
    4
  9
$SKETCHINC
 40
1
  9
$FILLETRAD
 40
0
  9
$AUNITS
 70
    0
  9
$AUPREC
 70
    2
  9
$MENU
  1
.
  9
$ELEVATION
 40
0
  9
$PELEVATION
 40
0
  9
$THICKNESS
 40
0
  9
$LIMCHECK
 70
    0
  9
$CHAMFERA
 40
0
  9
$CHAMFERB
 40
0
  9
$CHAMFERC
 40
0
  9
$CHAMFERD
 40
0
  9
$SKPOLY
 70
    0
  9
$USRTIMER
 70
    1
  9
$ANGBASE
 50
0
  9
$ANGDIR
 70
    0
  9
$PDMODE
 70
    3
  9
$PDSIZE
 40
0.3125
  9
$PLINEWID
 40
0
  9
$SPLFRAME
 70
    0
  9
$SPLINETYPE
 70
    2
  9
$SPLINESEGS
 70
    8
  9
$HANDSEED
  5
20000
  9
$SURFTAB1
 70
    6
  9
$SURFTAB2
 70
    6
  9
$SURFTYPE
 70
    6
  9
$SURFU
 70
    6
  9
$SURFV
 70
    6
  9
$UCSBASE
  2

  9
$UCSNAME
  2

  9
$UCSORG
 10
0
 20
0
 30
0
  9
$UCSXDIR
 10
1
 20
0
 30
0
  9
$UCSYDIR
 10
0
 20
1
 30
0
  9
$UCSORTHOREF
  2

  9
$UCSORTHOVIEW
 70
    0
  9
$UCSORGTOP
 10
0
 20
0
 30
0
  9
$UCSORGBOTTOM
 10
0
 20
0
 30
0
  9
$UCSORGLEFT
 10
0
 20
0
 30
0
  9
$UCSORGRIGHT
 10
0
 20
0
 30
0
  9
$UCSORGFRONT
 10
0
 20
0
 30
0
  9
$UCSORGBACK
 10
0
 20
0
 30
0
  9
$PUCSBASE
  2

  9
$PUCSNAME
  2

  9
$PUCSORG
 10
0
 20
0
 30
0
  9
$PUCSXDIR
 10
1
 20
0
 30
0
  9
$PUCSYDIR
 10
0
 20
1
 30
0
  9
$PUCSORTHOREF
  2

  9
$PUCSORTHOVIEW
 70
    0
  9
$PUCSORGTOP
 10
0
 20
0
 30
0
  9
$PUCSORGBOTTOM
 10
0
 20
0
 30
0
  9
$PUCSORGLEFT
 10
0
 20
0
 30
0
  9
$PUCSORGRIGHT
 10
0
 20
0
 30
0
  9
$PUCSORGFRONT
 10
0
 20
0
 30
0
  9
$PUCSORGBACK
 10
0
 20
0
 30
0
  9
$USERI1
 70
    0
  9
$USERI2
 70
    0
  9
$USERI3
 70
    0
  9
$USERI4
 70
    0
  9
$USERI5
 70
    0
  9
$USERR1
 40
0
  9
$USERR2
 40
0
  9
$USERR3
 40
0
  9
$USERR4
 40
0
  9
$USERR5
 40
0
  9
$WORLDVIEW
 70
    1
  9
$SHADEDGE
 70
    3
  9
$SHADEDIF
 70
   70
  9
$TILEMODE
 70
    1
  9
$MAXACTVP
 70
   64
  9
$PINSBASE
 10
0
 20
0
 30
0
  9
$PLIMCHECK
 70
    0
  9
$PEXTMIN
 10
0
 20
0
 30
0
  9
$PEXTMAX
 10
0
 20
0
 30
0
  9
$GRIDMODE
 70
    1
  9
$SNAPSTYLE
 70
    0
  9
$GRIDUNIT
 10
0
 20
0
  9
$VIEWCTR
 10
11
 20
8.5
  9
$PLIMMIN
 10
0
 20
0
  9
$PLIMMAX
 10
0.3255
 20
0.46035
  9
$UNITMODE
 70
    0
  9
$VISRETAIN
 70
    1
  9
$PLINEGEN
 70
    0
  9
$PSLTSCALE
 70
    1
  9
$TREEDEPTH
 70
 3020
  9
$CMLSTYLE
  2
Standard
  9
$CMLJUST
 70
    0
  9
$CMLSCALE
 40
20
  9
$PROXYGRAPHICS
 70
    1
  9
$MEASUREMENT
 70
    0
  9
$CELWEIGHT
370
   -1
  9
$ENDCAPS
280
    0
  9
$JOINSTYLE
280
    0
  9
$LWDISPLAY
290
    0
  9
$INSUNITS
 70
    4
  9
$HYPERLINKBASE
  1

  9
$STYLESHEET
  1

  9
$XEDIT
290
    1
  9
$CEPSNTYPE
380
    0
  9
$PSTYLEMODE
290
    1
  9
$EXTNAMES
290
    1
  9
$PSVPSCALE
 40
1
  9
$OLESTARTUP
290
    0
  9
$SORTENTS
280
  127
  9
$INDEXCTL
280
    0
  9
$HIDETEXT
280
    1
  9
$XCLIPFRAME
290
    0
  9
$HALOGAP
280
    0
  9
$OBSCOLOR
 70
  257
  9
$OBSLTYPE
280
    0
  9
$INTERSECTIONDISPLAY
280
    0
  9
$INTERSECTIONCOLOR
 70
  257
  9
$DIMASSOC
280
    1
  9
$PROJECTNAME
  1

  9
$CAMERADISPLAY
290
    0
  9
$LENSLENGTH
 40
50
  9
$CAMERAHEIGHT
 40
0
  9
$STEPSPERSEC
 40
2
  9
$STEPSIZE
 40
50
  9
$3DDWFPREC
 40
2
  9
$PSOLWIDTH
 40
5
  9
$PSOLHEIGHT
 40
80
  9
$LOFTANG1
 40
1.570796326794897
  9
$LOFTANG2
 40
1.570796326794897
  9
$LOFTMAG1
 40
0
  9
$LOFTMAG2
 40
0
  9
$LOFTPARAM
 70
    7
  9
$LOFTNORMALS
280
    1
  9
$LATITUDE
 40
1
  9
$LONGITUDE
 40
1
  9
$NORTHDIRECTION
 40
0
  9
$TIMEZONE
 70
-8000
  9
$LIGHTGLYPHDISPLAY
280
    1
  9
$TILEMODELIGHTSYNCH
280
    1
  9
$SOLIDHIST
280
    1
  9
$SHOWHIST
280
    1
  9
$DWFFRAME
280
    2
  9
$DGNFRAME
280
    0
  9
$REALWORLDSCALE
290
    1
  9
$INTERFERECOLOR
 62
    1
  9
$CSHADOW
280
    0
  9
$SHADOWPLANELOCATION
 40
0
  0
ENDSEC
  0
SECTION
  2
CLASSES
  0
ENDSEC
  0
SECTION
  2
TABLES
  0
TABLE
  2
VPORT
  5
8
330
0
100
AcDbSymbolTable
 70
    1
  0
VPORT
  5
31
330
2
100
AcDbSymbolTableRecord
100
AcDbViewportTableRecord
  2
*ACTIVE
 70
    0
 10
0
 20
0
 11
1
 21
1
 12
1188.540257864545
 22
629.3113278705171
 13
0
 23
0
 14
10
 24
10
 15
10
 25
10
 16
0
 26
0
 36
1
 17
0
 27
0
 37
0
 40
2348.475455371339
 41
1.847746650426309
 42
50
 43
0
 44
0
 50
0
 51
0
 71
    0
 72
  100
 73
    1
 74
    3
 75
    0
 76
    1
 77
    0
 78
    0
281
    0
 65
    1
110
0
120
0
130
0
111
1
121
0
131
0
112
0
122
1
132
0
 79
    0
146
0
348
10020
 60
    7
 61
    5
292
1
282
    1
141
0
142
0
 63
  250
421
3358443
  0
ENDTAB
  0
TABLE
  2
LTYPE
  5
5
330
0
100
AcDbSymbolTable
 70
    4
  0
LTYPE
  5
14
330
5
100
AcDbSymbolTableRecord
100
AcDbLinetypeTableRecord
  2
ByBlock
 70
    0
  3

 72
   65
 73
    0
 40
0
  0
LTYPE
  5
15
330
5
100
AcDbSymbolTableRecord
100
AcDbLinetypeTableRecord
  2
ByLayer
 70
    0
  3

 72
   65
 73
    0
 40
0
  0
LTYPE
  5
16
330
5
100
AcDbSymbolTableRecord
100
AcDbLinetypeTableRecord
  2
Continuous
 70
    0
  3
Solid line
 72
   65
 73
    0
 40
0
  0
LTYPE
  5
32
330
5
100
AcDbSymbolTableRecord
100
AcDbLinetypeTableRecord
  2
DOT
 70
    0
  3
Dot . . . . . . . . . . . . . . . . . . . . . .
 72
   65
 73
    2
 40
6.35
 49
0
 74
    0
 49
-6.35
 74
    0
  0
LTYPE
  5
33
330
5
100
AcDbSymbolTableRecord
100
AcDbLinetypeTableRecord
  2
DOTTINY
 70
    0
  3
Dot (.15x) .....................................
 72
   65
 73
    2
 40
0.9525
 49
0
 74
    0
 49
-0.9525
 74
    0
  0
LTYPE
  5
34
330
5
100
AcDbSymbolTableRecord
100
AcDbLinetypeTableRecord
  2
DOT2
 70
    0
  3
Dot (.5x) .....................................
 72
   65
 73
    2
 40
3.175
 49
0
 74
    0
 49
-3.175
 74
    0
  0
LTYPE
  5
35
330
5
100
AcDbSymbolTableRecord
100
AcDbLinetypeTableRecord
  2
DOTX2
 70
    0
  3
Dot (2x) .  .  .  .  .  .  .  .  .  .  .  .  .
 72
   65
 73
    2
 40
12.7
 49
0
 74
    0
 49
-12.7
 74
    0
  0
LTYPE
  5
36
330
5
100
AcDbSymbolTableRecord
100
AcDbLinetypeTableRecord
  2
DASHED
 70
    0
  3
Dashed _ _ _ _ _ _ _ _ _ _ _ _ _ _ _ _ _
 72
   65
 73
    2
 40
19.05
 49
12.7
 74
    0
 49
-6.35
 74
    0
  0
LTYPE
  5
37
330
5
100
AcDbSymbolTableRecord
100
AcDbLinetypeTableRecord
  2
DASHEDTINY
 70
    0
  3
Dashed (.15x) _ _ _ _ _ _ _ _ _ _ _ _ _ _ _ _ _
 72
   65
 73
    2
 40
2.8575
 49
1.905
 74
    0
 49
-0.9525
 74
    0
  0
LTYPE
  5
38
330
5
100
AcDbSymbolTableRecord
100
AcDbLinetypeTableRecord
  2
DASHED2
 70
    0
  3
Dashed (.5x) _ _ _ _ _ _ _ _ _ _ _ _ _ _ _ _ _
 72
   65
 73
    2
 40
9.524999999999999
 49
6.35
 74
    0
 49
-3.175
 74
    0
  0
LTYPE
  5
39
330
5
100
AcDbSymbolTableRecord
100
AcDbLinetypeTableRecord
  2
DASHEDX2
 70
    0
  3
Dashed (2x) ____  ____  ____  ____  ____  ___
 72
   65
 73
    2
 40
38.09999999999999
 49
25.4
 74
    0
 49
-12.7
 74
    0
  0
LTYPE
  5
3A
330
5
100
AcDbSymbolTableRecord
100
AcDbLinetypeTableRecord
  2
DASHDOT
 70
    0
  3
Dash dot __ . __ . __ . __ . __ . __ . __ . __
 72
   65
 73
    4
 40
25.4
 49
12.7
 74
    0
 49
-6.35
 74
    0
 49
0
 74
    0
 49
-6.35
 74
    0
  0
LTYPE
  5
3B
330
5
100
AcDbSymbolTableRecord
100
AcDbLinetypeTableRecord
  2
DASHDOTTINY
 70
    0
  3
Dash dot (.15x) _._._._._._._._._._._._._._._.
 72
   65
 73
    4
 40
3.81
 49
1.905
 74
    0
 49
-0.9525
 74
    0
 49
0
 74
    0
 49
-0.9525
 74
    0
  0
LTYPE
  5
3C
330
5
100
AcDbSymbolTableRecord
100
AcDbLinetypeTableRecord
  2
DASHDOT2
 70
    0
  3
Dash dot (.5x) _._._._._._._._._._._._._._._.
 72
   65
 73
    4
 40
12.7
 49
6.35
 74
    0
 49
-3.175
 74
    0
 49
0
 74
    0
 49
-3.175
 74
    0
  0
LTYPE
  5
3D
330
5
100
AcDbSymbolTableRecord
100
AcDbLinetypeTableRecord
  2
DASHDOTX2
 70
    0
  3
Dash dot (2x) ____  .  ____  .  ____  .  ___
 72
   65
 73
    4
 40
50.8
 49
25.4
 74
    0
 49
-12.7
 74
    0
 49
0
 74
    0
 49
-12.7
 74
    0
  0
LTYPE
  5
3E
330
5
100
AcDbSymbolTableRecord
100
AcDbLinetypeTableRecord
  2
DIVIDE
 70
    0
  3
Divide ____ . . ____ . . ____ . . ____ . . ____
 72
   65
 73
    6
 40
31.75
 49
12.7
 74
    0
 49
-6.35
 74
    0
 49
0
 74
    0
 49
-6.35
 74
    0
 49
0
 74
    0
 49
-6.35
 74
    0
  0
LTYPE
  5
3F
330
5
100
AcDbSymbolTableRecord
100
AcDbLinetypeTableRecord
  2
DIVIDETINY
 70
    0
  3
Divide (.15x) __..__..__..__..__..__..__..__.._
 72
   65
 73
    6
 40
4.7625
 49
1.905
 74
    0
 49
-0.9525
 74
    0
 49
0
 74
    0
 49
-0.9525
 74
    0
 49
0
 74
    0
 49
-0.9525
 74
    0
  0
LTYPE
  5
40
330
5
100
AcDbSymbolTableRecord
100
AcDbLinetypeTableRecord
  2
DIVIDE2
 70
    0
  3
Divide (.5x) __..__..__..__..__..__..__..__.._
 72
   65
 73
    6
 40
15.875
 49
6.35
 74
    0
 49
-3.175
 74
    0
 49
0
 74
    0
 49
-3.175
 74
    0
 49
0
 74
    0
 49
-3.175
 74
    0
  0
LTYPE
  5
41
330
5
100
AcDbSymbolTableRecord
100
AcDbLinetypeTableRecord
  2
DIVIDEX2
 70
    0
  3
Divide (2x) ________  .  .  ________  .  .  _
 72
   65
 73
    6
 40
63.5
 49
25.4
 74
    0
 49
-12.7
 74
    0
 49
0
 74
    0
 49
-12.7
 74
    0
 49
0
 74
    0
 49
-12.7
 74
    0
  0
LTYPE
  5
42
330
5
100
AcDbSymbolTableRecord
100
AcDbLinetypeTableRecord
  2
BORDER
 70
    0
  3
Border __ __ . __ __ . __ __ . __ __ . __ __ .
 72
   65
 73
    6
 40
44.45
 49
12.7
 74
    0
 49
-6.35
 74
    0
 49
12.7
 74
    0
 49
-6.35
 74
    0
 49
0
 74
    0
 49
-6.35
 74
    0
  0
LTYPE
  5
43
330
5
100
AcDbSymbolTableRecord
100
AcDbLinetypeTableRecord
  2
BORDERTINY
 70
    0
  3
Border (.15x) __.__.__.__.__.__.__.__.__.__.__.
 72
   65
 73
    6
 40
6.6675
 49
1.905
 74
    0
 49
-0.9525
 74
    0
 49
1.905
 74
    0
 49
-0.9525
 74
    0
 49
0
 74
    0
 49
-0.9525
 74
    0
  0
LTYPE
  5
44
330
5
100
AcDbSymbolTableRecord
100
AcDbLinetypeTableRecord
  2
BORDER2
 70
    0
  3
Border (.5x) __.__.__.__.__.__.__.__.__.__.__.
 72
   65
 73
    6
 40
22.225
 49
6.35
 74
    0
 49
-3.175
 74
    0
 49
6.35
 74
    0
 49
-3.175
 74
    0
 49
0
 74
    0
 49
-3.175
 74
    0
  0
LTYPE
  5
45
330
5
100
AcDbSymbolTableRecord
100
AcDbLinetypeTableRecord
  2
BORDERX2
 70
    0
  3
Border (2x) ____  ____  .  ____  ____  .  ___
 72
   65
 73
    6
 40
88.89999999999999
 49
25.4
 74
    0
 49
-12.7
 74
    0
 49
25.4
 74
    0
 49
-12.7
 74
    0
 49
0
 74
    0
 49
-12.7
 74
    0
  0
LTYPE
  5
46
330
5
100
AcDbSymbolTableRecord
100
AcDbLinetypeTableRecord
  2
CENTER
 70
    0
  3
Center ____ _ ____ _ ____ _ ____ _ ____ _ ____
 72
   65
 73
    4
 40
50.8
 49
31.75
 74
    0
 49
-6.35
 74
    0
 49
6.35
 74
    0
 49
-6.35
 74
    0
  0
LTYPE
  5
47
330
5
100
AcDbSymbolTableRecord
100
AcDbLinetypeTableRecord
  2
CENTERTINY
 70
    0
  3
Center (.15x) ___ _ ___ _ ___ _ ___ _ ___ _ ___
 72
   65
 73
    4
 40
7.619999999999999
 49
4.7625
 74
    0
 49
-0.9525
 74
    0
 49
0.9525
 74
    0
 49
-0.9525
 74
    0
  0
LTYPE
  5
48
330
5
100
AcDbSymbolTableRecord
100
AcDbLinetypeTableRecord
  2
CENTER2
 70
    0
  3
Center (.5x) ___ _ ___ _ ___ _ ___ _ ___ _ ___
 72
   65
 73
    4
 40
28.575
 49
19.05
 74
    0
 49
-3.175
 74
    0
 49
3.175
 74
    0
 49
-3.175
 74
    0
  0
LTYPE
  5
49
330
5
100
AcDbSymbolTableRecord
100
AcDbLinetypeTableRecord
  2
CENTERX2
 70
    0
  3
Center (2x) ________  __  ________  __  _____
 72
   65
 73
    4
 40
101.6
 49
63.5
 74
    0
 49
-12.7
 74
    0
 49
12.7
 74
    0
 49
-12.7
 74
    0
  0
ENDTAB
  0
TABLE
  2
LAYER
  5
2
330
0
100
AcDbSymbolTable
 70
    1
  0
LAYER
  5
10
330
2
100
AcDbSymbolTableRecord
100
AcDbLayerTableRecord
  2
0
 70
    4
 62
    7
  6
CONTINUOUS
370
   -3
390
F
  0
LAYER
  5
4A
330
2
100
AcDbSymbolTableRecord
100
AcDbLayerTableRecord
  2
Construct
 70
    1
 62
    6
  6
CONTINUOUS
370
    0
390
F
  0
LAYER
  5
4B
330
2
100
AcDbSymbolTableRecord
100
AcDbLayerTableRecord
  2
DEFAULT_3
 70
    1
 62
    7
  6
CONTINUOUS
370
   -3
390
F
  0
LAYER
  5
4C
330
2
100
AcDbSymbolTableRecord
100
AcDbLayerTableRecord
  2
Driver
 70
    0
 62
    5
  6
CONTINUOUS
370
    0
390
F
  0
LAYER
  5
4D
330
2
100
AcDbSymbolTableRecord
100
AcDbLayerTableRecord
  2
frame
 70
    0
 62
    1
  6
CONTINUOUS
370
    0
390
F
  0
LAYER
  5
4E
330
2
100
AcDbSymbolTableRecord
100
AcDbLayerTableRecord
  2
frame_rr9
 70
    1
 62
    5
  6
CONTINUOUS
370
    0
390
F
  0
LAYER
  5
4F
330
2
100
AcDbSymbolTableRecord
100
AcDbLayerTableRecord
  2
internals
 70
    0
 62
    3
  6
CONTINUOUS
370
   -3
390
F
  0
ENDTAB
  0
TABLE
  2
STYLE
  5
3
330
0
100
AcDbSymbolTable
 70
    3
  0
STYLE
  5
50
330
2
100
AcDbSymbolTableRecord
100
AcDbTextStyleTableRecord
  2
Standard
 70
    0
 40
0
 41
1
 50
0
 71
    0
 42
1
  3
txt
  4

  0
ENDTAB
  0
TABLE
  2
VIEW
  5
6
330
0
100
AcDbSymbolTable
 70
    0
  0
ENDTAB
  0
TABLE
  2
UCS
  5
7
330
0
100
AcDbSymbolTable
 70
    0
  0
ENDTAB
  0
TABLE
  2
APPID
  5
9
330
0
100
AcDbSymbolTable
 70
    1
  0
APPID
  5
12
330
9
100
AcDbSymbolTableRecord
100
AcDbRegAppTableRecord
  2
ACAD
 70
    0
  0
APPID
  5
51
330
9
100
AcDbSymbolTableRecord
100
AcDbRegAppTableRecord
  2
LibreCad
 70
    0
  0
ENDTAB
  0
TABLE
  2
DIMSTYLE
  5
A
330
0
100
AcDbSymbolTable
 70
    1
100
AcDbDimStyleTable
 71
    1
  0
DIMSTYLE
105
52
330
A
100
AcDbSymbolTableRecord
100
AcDbDimStyleTableRecord
  2
Standard
 70
    0
 40
1
 41
0.1875
 42
0.0625
 43
0.38
 44
0.125
 45
0
 46
0
 47
0
 48
0
 49
1
140
0.15625
141
0.09
142
0
143
25.4
144
1
145
0
146
1
147
0.09
148
0
 71
    0
 72
    0
 73
    0
 74
    1
 75
    0
 76
    0
 77
    0
 78
    8
 79
    0
170
    0
171
    2
172
    0
173
    0
174
    0
175
    0
176
    0
177
    0
178
    0
179
    0
271
    3
272
    4
273
    2
274
    2
275
    0
276
    0
277
    2
278
    0
279
    0
280
    0
281
    0
282
    0
283
    1
284
    0
285
    0
286
    0
288
    0
289
    3
340
standard
341

371
   -2
372
   -2
  0
ENDTAB
  0
TABLE
  2
BLOCK_RECORD
  5
1
330
0
100
AcDbSymbolTable
 70
    2
  0
BLOCK_RECORD
  5
1F
330
1
100
AcDbSymbolTableRecord
100
AcDbBlockTableRecord
  2
*Model_Space
 70
    0
280
    1
281
    0
  0
BLOCK_RECORD
  5
1E
330
1
100
AcDbSymbolTableRecord
100
AcDbBlockTableRecord
  2
*Paper_Space
 70
    0
280
    1
281
    0
  0
BLOCK_RECORD
  5
53
330
1
100
AcDbSymbolTableRecord
100
AcDbBlockTableRecord
  2
3RD_ANGLE_BL0
 70
    0
280
    1
281
    0
  0
BLOCK_RECORD
  5
56
330
1
100
AcDbSymbolTableRecord
100
AcDbBlockTableRecord
  2
*T1
 70
    0
280
    1
281
    0
  0
BLOCK_RECORD
  5
59
330
1
100
AcDbSymbolTableRecord
100
AcDbBlockTableRecord
  2
*T2
 70
    0
280
    1
281
    0
  0
BLOCK_RECORD
  5
5C
330
1
100
AcDbSymbolTableRecord
100
AcDbBlockTableRecord
  2
*T3
 70
    0
280
    1
281
    0
  0
BLOCK_RECORD
  5
5F
330
1
100
AcDbSymbolTableRecord
100
AcDbBlockTableRecord
  2
Driver
 70
    0
280
    1
281
    0
  0
BLOCK_RECORD
  5
62
330
1
100
AcDbSymbolTableRecord
100
AcDbBlockTableRecord
  2
batteryS
 70
    0
280
    1
281
    0
  0
BLOCK_RECORD
  5
65
330
1
100
AcDbSymbolTableRecord
100
AcDbBlockTableRecord
  2
batteryT
 70
    0
280
    1
281
    0
  0
BLOCK_RECORD
  5
68
330
1
100
AcDbSymbolTableRecord
100
AcDbBlockTableRecord
  2
MotorS
 70
    0
280
    1
281
    0
  0
BLOCK_RECORD
  5
6B
330
1
100
AcDbSymbolTableRecord
100
AcDbBlockTableRecord
  2
WheelSide
 70
    0
280
    1
281
    0
  0
BLOCK_RECORD
  5
6E
330
1
100
AcDbSymbolTableRecord
100
AcDbBlockTableRecord
  2
WheelTop
 70
    0
280
    1
281
    0
  0
ENDTAB
  0
ENDSEC
  0
SECTION
  2
BLOCKS
  0
BLOCK
  5
20
330
1F
100
AcDbEntity
  8
0
100
AcDbBlockBegin
  2
*Model_Space
 70
    0
 10
0
 20
0
 30
0
  3
*Model_Space
  1

  0
ENDBLK
  5
21
330
1F
100
AcDbEntity
  8
0
100
AcDbBlockEnd
  0
BLOCK
  5
1C
330
1B
100
AcDbEntity
  8
0
100
AcDbBlockBegin
  2
*Paper_Space
 70
    0
 10
0
 20
0
 30
0
  3
*Paper_Space
  1

  0
ENDBLK
  5
1D
330
1F
100
AcDbEntity
  8
0
100
AcDbBlockEnd
  0
BLOCK
  5
54
330
53
100
AcDbEntity
  8
0
100
AcDbBlockBegin
  2
3RD_ANGLE_BL0
 70
    0
 10
15.5433603808
 20
2.1154884008
  3
3RD_ANGLE_BL0
  1

  0
CIRCLE
  5
71
100
AcDbEntity
  8
0
  6
CONTINUOUS
 62
    2
370
   -1
100
AcDbCircle
 10
15.8644337823
 20
2.1227812843
 40
0.12
  0
CIRCLE
  5
72
100
AcDbEntity
  8
0
  6
CONTINUOUS
 62
    2
370
   -1
100
AcDbCircle
 10
15.8631786092
 20
2.1226636297
 40
0.24
  0
LINE
  5
73
100
AcDbEntity
  8
0
  6
CONTINUOUS
 62
    2
370
   -1
100
AcDbLine
 10
15.4771341555
 20
2.0010028504
 11
15.4771341555
 21
2.2389093342
  0
LINE
  5
74
100
AcDbEntity
  8
0
  6
CONTINUOUS
 62
    2
370
   -1
100
AcDbLine
 10
15.0139789889
 20
2.3582499293
 11
15.0139789889
 21
1.8780562062
  0
LINE
  5
75
100
AcDbEntity
  8
0
  6
CONTINUOUS
 62
    2
370
   -1
100
AcDbLine
 10
15.4771341555
 20
2.2389093342
 11
15.0139789889
 21
2.3582499293
  0
LINE
  5
76
100
AcDbEntity
  8
0
  6
CONTINUOUS
 62
    2
370
   -1
100
AcDbLine
 10
15.4771341555
 20
2.0010028504
 11
15.0139789889
 21
1.8780562062
  0
LINE
  5
77
100
AcDbEntity
  8
0
  6
CONTINUOUS
 62
    2
370
   -1
100
AcDbLine
 10
15.8679654057
 20
1.8038460121
 11
15.8671968671
 21
2.4271307895
  0
ENDBLK
  5
55
330
53
100
AcDbEntity
  8
0
100
AcDbBlockEnd
  0
BLOCK
  5
57
330
56
100
AcDbEntity
  8
0
100
AcDbBlockBegin
  2
*T1
 70
    0
 10
0
 20
0
  3
*T1
  1

  0
LINE
  5
78
100
AcDbEntity
  8
0
  6
CONTINUOUS
 62
    2
370
   -1
100
AcDbLine
 10
0
 20
0
 11
4
 21
0
  0
LINE
  5
79
100
AcDbEntity
  8
0
  6
CONTINUOUS
 62
    2
370
   -1
100
AcDbLine
 10
0
 20
0
 11
0
 21
-0.312
  0
LINE
  5
7A
100
AcDbEntity
  8
0
  6
CONTINUOUS
 62
    2
370
   -1
100
AcDbLine
 10
0
 20
-0.312
 11
4
 21
-0.312
  0
LINE
  5
7B
100
AcDbEntity
  8
0
  6
CONTINUOUS
 62
    2
370
   -1
100
AcDbLine
 10
4
 20
0
 11
4
 21
-0.312
  0
ENDBLK
  5
58
330
56
100
AcDbEntity
  8
0
100
AcDbBlockEnd
  0
BLOCK
  5
5A
330
59
100
AcDbEntity
  8
0
100
AcDbBlockBegin
  2
*T2
 70
    0
 10
0
 20
0
  3
*T2
  1

  0
LINE
  5
7C
100
AcDbEntity
  8
0
  6
CONTINUOUS
 62
    2
370
   -1
100
AcDbLine
 10
0
 20
0
 11
4.688
 21
0
  0
LINE
  5
7D
100
AcDbEntity
  8
0
  6
CONTINUOUS
 62
    2
370
   -1
100
AcDbLine
 10
0
 20
0
 11
0
 21
-0.5
  0
LINE
  5
7E
100
AcDbEntity
  8
0
  6
CONTINUOUS
 62
    2
370
   -1
100
AcDbLine
 10
0
 20
-0.5
 11
4.688
 21
-0.5
  0
LINE
  5
7F
100
AcDbEntity
  8
0
  6
CONTINUOUS
 62
    2
370
   -1
100
AcDbLine
 10
4.688
 20
0
 11
4.688
 21
-0.5
  0
ENDBLK
  5
5B
330
59
100
AcDbEntity
  8
0
100
AcDbBlockEnd
  0
BLOCK
  5
5D
330
5C
100
AcDbEntity
  8
0
100
AcDbBlockBegin
  2
*T3
 70
    0
 10
0
 20
0
  3
*T3
  1

  0
LINE
  5
80
100
AcDbEntity
  8
0
  6
CONTINUOUS
 62
    2
370
   -1
100
AcDbLine
 10
0
 20
0
 11
2.625
 21
0
  0
LINE
  5
81
100
AcDbEntity
  8
0
  6
CONTINUOUS
 62
    2
370
   -1
100
AcDbLine
 10
0
 20
0
 11
0
 21
-0.5
  0
LINE
  5
82
100
AcDbEntity
  8
0
  6
CONTINUOUS
 62
    2
370
   -1
100
AcDbLine
 10
0
 20
-0.5
 11
2.625
 21
-0.5
  0
LINE
  5
83
100
AcDbEntity
  8
0
  6
CONTINUOUS
 62
    2
370
   -1
100
AcDbLine
 10
2.625
 20
0
 11
2.625
 21
-0.5
  0
ENDBLK
  5
5E
330
5C
100
AcDbEntity
  8
0
100
AcDbBlockEnd
  0
BLOCK
  5
60
330
5F
100
AcDbEntity
  8
0
100
AcDbBlockBegin
  2
Driver
 70
    0
 10
0
 20
0
  3
Driver
  1

  0
ELLIPSE
  5
84
100
AcDbEntity
  8
Driver
  6
ByLayer
 62
  256
370
  200
100
AcDbEllipse
 10
-1032.626070066995
 20
-14.65549461733236
 30
0
 11
54.25623967738274
 21
-81.38456733355777
 31
0
 40
0.1865625000000001
 41
4.884981308350689e-15
 42
0
  0
LINE
  5
85
100
AcDbEntity
  8
Driver
  6
ByLayer
 62
  256
370
   -1
100
AcDbLine
 10
241.7365093605036
 20
117.0582702282491
 11
428.4899554741609
 21
93.69939859055066
  0
ARC
  5
86
100
AcDbEntity
  8
Driver
  6
CONTINUOUS
 62
    5
370
    0
100
AcDbCircle
 10
344.8011803825919
 20
182.8336745379814
 40
122.265
100
AcDbArc
 50
313.1952579771026
 51
212.5458338004496
  0
ELLIPSE
  5
87
100
AcDbEntity
  8
Driver
  6
ByLayer
 62
  256
370
   -1
100
AcDbEllipse
 10
-410
 20
10
 30
0
 11
197.6284549635263
 21
-96.83428998928768
 31
0
 40
0.2338911111111111
 41
0
 42
6.283185307179586
  0
ELLIPSE
  5
88
100
AcDbEntity
  8
Driver
  6
ByLayer
 62
  256
370
   -1
100
AcDbEllipse
 10
-780
 20
10
 30
0
 11
222.3974687246684
 21
101.6576942727906
 31
0
 40
0.1331156666666668
 41
0.9460679383482899
 42
7.229253245527875
  0
ELLIPSE
  5
89
100
AcDbEntity
  8
Driver
  6
ByLayer
 62
  256
370
   -1
100
AcDbEllipse
 10
-5.128477539608314
 20
-19.81914861342906
 30
0
 11
276.1962537716599
 21
73.18147326455258
 31
0
 40
0.2834144601403398
 41
6.283185307179584
 42
12.56637061435917
  0
ENDBLK
  5
61
330
5F
100
AcDbEntity
  8
0
100
AcDbBlockEnd
  0
BLOCK
  5
63
330
62
100
AcDbEntity
  8
0
100
AcDbBlockBegin
  2
batteryS
 70
    0
 10
0
 20
0
  3
batteryS
  1

  0
LINE
  5
8A
100
AcDbEntity
  8
internals
  6
ByLayer
 62
  256
370
   -1
100
AcDbLine
 10
0
 20
-161
 11
200
 21
-161
  0
LINE
  5
8B
100
AcDbEntity
  8
internals
  6
ByLayer
 62
  256
370
   -1
100
AcDbLine
 10
200
 20
-161
 11
200
 21
0
  0
LINE
  5
8C
100
AcDbEntity
  8
internals
  6
ByLayer
 62
  256
370
   -1
100
AcDbLine
 10
0
 20
-161
 11
0
 21
0
  0
LINE
  5
8D
100
AcDbEntity
  8
internals
  6
ByLayer
 62
  256
370
   -1
100
AcDbLine
 10
0
 20
0
 11
200
 21
0
  0
ENDBLK
  5
64
330
62
100
AcDbEntity
  8
0
100
AcDbBlockEnd
  0
BLOCK
  5
66
330
65
100
AcDbEntity
  8
0
100
AcDbBlockBegin
  2
batteryT
 70
    0
 10
0
 20
0
  3
batteryT
  1

  0
LINE
  5
8E
100
AcDbEntity
  8
internals
  6
ByLayer
 62
  256
370
   -1
100
AcDbLine
 10
0
 20
0
 11
200
 21
0
  0
LINE
  5
8F
100
AcDbEntity
  8
internals
  6
ByLayer
 62
  256
370
   -1
100
AcDbLine
 10
0
 20
0
 11
0
 21
-131
  0
LINE
  5
90
100
AcDbEntity
  8
internals
  6
ByLayer
 62
  256
370
   -1
100
AcDbLine
 10
200
 20
0
 11
200
 21
-131
  0
LINE
  5
91
100
AcDbEntity
  8
internals
  6
ByLayer
 62
  256
370
   -1
100
AcDbLine
 10
0
 20
-131
 11
200
 21
-131
  0
ENDBLK
  5
67
330
65
100
AcDbEntity
  8
0
100
AcDbBlockEnd
  0
BLOCK
  5
69
330
68
100
AcDbEntity
  8
0
100
AcDbBlockBegin
  2
MotorS
 70
    0
 10
0
 20
0
  3
MotorS
  1

  0
CIRCLE
  5
92
100
AcDbEntity
  8
internals
  6
ByLayer
 62
  256
370
   -1
100
AcDbCircle
 10
0
 20
0
 40
60
  0
LWPOLYLINE
  5
93
100
AcDbEntity
  8
internals
  6
ByLayer
 62
  256
370
   -1
100
AcDbPolyline
 90
    4
 70
    1
 43
0
 10
-50
 20
-60
 10
50
 20
-60
 10
50
 20
-80
 10
-50
 20
-80
  0
ENDBLK
  5
6A
330
68
100
AcDbEntity
  8
0
100
AcDbBlockEnd
  0
BLOCK
  5
6C
330
6B
100
AcDbEntity
  8
0
100
AcDbBlockBegin
  2
WheelSide
 70
    0
 10
0
 20
0
  3
WheelSide
  1

  0
CIRCLE
  5
94
100
AcDbEntity
  8
internals
  6
ByLayer
 62
  256
370
   -1
100
AcDbCircle
 10
0
 20
0
 40
205
  0
ENDBLK
  5
6D
330
6B
100
AcDbEntity
  8
0
100
AcDbBlockEnd
  0
BLOCK
  5
6F
330
6E
100
AcDbEntity
  8
0
100
AcDbBlockBegin
  2
WheelTop
 70
    0
 10
0
 20
0
  3
WheelTop
  1

  0
LINE
  5
95
100
AcDbEntity
  8
Construct
  6
ByLayer
 62
  256
370
   -1
100
AcDbLine
 10
0
 20
-35
 11
0
 21
35
  0
LINE
  5
96
100
AcDbEntity
  8
Construct
  6
ByLayer
 62
  256
370
   -1
100
AcDbLine
 10
-193
 20
-12
 11
187
 21
-12
  0
LINE
  5
97
100
AcDbEntity
  8
Construct
  6
ByLayer
 62
  256
370
   -1
100
AcDbLine
 10
-193
 20
12
 11
187
 21
12
  0
LINE
  5
98
100
AcDbEntity
  8
internals
  6
ByLayer
 62
  256
370
   -1
100
AcDbLine
 10
-193
 20
12
 11
0
 21
35
  0
LINE
  5
99
100
AcDbEntity
  8
internals
  6
ByLayer
 62
  256
370
   -1
100
AcDbLine
 10
0
 20
35
 11
187
 21
12
  0
LINE
  5
9A
100
AcDbEntity
  8
internals
  6
ByLayer
 62
  256
370
   -1
100
AcDbLine
 10
-193
 20
-12
 11
0
 21
-35
  0
LINE
  5
9B
100
AcDbEntity
  8
internals
  6
ByLayer
 62
  256
370
   -1
100
AcDbLine
 10
0
 20
-35
 11
187
 21
-12
  0
LINE
  5
9C
100
AcDbEntity
  8
Construct
  6
ByLayer
 62
  256
370
   -1
100
AcDbLine
 10
-205
 20
0
 11
199
 21
0
  0
ARC
  5
9D
100
AcDbEntity
  8
internals
  6
ByLayer
 62
  256
370
   -1
100
AcDbCircle
 10
-193
 20
0
 40
12
100
AcDbArc
 50
90
 51
270
  0
ARC
  5
9E
100
AcDbEntity
  8
internals
  6
ByLayer
 62
  256
370
   -1
100
AcDbCircle
 10
187
 20
0
 40
12
100
AcDbArc
 50
270
 51
90
  0
ENDBLK
  5
70
330
6E
100
AcDbEntity
  8
0
100
AcDbBlockEnd
  0
ENDSEC
  0
SECTION
  2
ENTITIES
  0
LINE
  5
9F
100
AcDbEntity
  8
0
  6
CONTINUOUS
 62
    7
370
   -1
100
AcDbLine
 10
-1392.464859084
 20
-463.8945330379
 11
-1391.3675137998
 21
-465.1513457071
  0
LINE
  5
A0
100
AcDbEntity
  8
0
  6
CONTINUOUS
 62
    7
370
   -1
100
AcDbLine
 10
-1285.1195037856
 20
-398.3467959962
 11
-1285.0594281066
 21
-398.4611402721
  0
LINE
  5
A1
100
AcDbEntity
  8
0
  6
CONTINUOUS
 62
    7
370
   -1
100
AcDbLine
 10
-1050.3809182248
 20
-530.471128385
 11
-1050.3809182247
 21
-332.1160458333
  0
LINE
  5
A2
100
AcDbEntity
  8
0
  6
CONTINUOUS
 62
    7
370
   -1
100
AcDbLine
 10
-1037.0043510562
 20
-531.4171012530001
 11
-1037.0043510562
 21
-327.2058464701
  0
LWPOLYLINE
  5
A3
100
AcDbEntity
  8
0
  6
CONTINUOUS
 62
    7
370
   -1
100
AcDbPolyline
 90
    6
 70
    0
 43
0
 10
-1391.3675137998
 20
-465.1513457071
 10
-1389.5193425842
 20
-466.6952741063
 10
-1387.1002852195
 20
-468.6457408776
 10
-1384.0266859358
 20
-470.8990879041
 10
-1380.2037649185
 20
-473.3136213212
 10
-1375.6298235933
 20
-475.9314117245
  0
LINE
  5
A4
100
AcDbEntity
  8
0
  6
CONTINUOUS
 62
    7
370
   -1
100
AcDbLine
 10
-1037.0043510562
 20
-327.2058464701
 11
-1051.1207404383
 21
-289.7777983364
  0
LINE
  5
A5
100
AcDbEntity
  8
0
  6
CONTINUOUS
 62
    7
370
   -1
100
AcDbLine
 10
-523.2762614672
 20
-189.5356654255
 11
-523.2873927586
 21
-190.1834559055
  0
LINE
  5
A6
100
AcDbEntity
  8
0
  6
CONTINUOUS
 62
    7
370
   -1
100
AcDbLine
 10
-1206.6547136901
 20
-358.4021461574
 11
-1285.1195031577
 21
-398.3467956766
  0
LINE
  5
A7
100
AcDbEntity
  8
0
  6
CONTINUOUS
 62
    7
370
   -1
100
AcDbLine
 10
-422.604669818
 20
-232.2539952878
 11
-420.4455709553
 21
-192.310666328
  0
LINE
  5
A8
100
AcDbEntity
  8
0
  6
CONTINUOUS
 62
    7
370
   -1
100
AcDbLine
 10
1309.9173633983
 20
-513.4083237613
 11
1345.4438782574
 21
-509.2988257931
  0
LINE
  5
A9
100
AcDbEntity
  8
0
  6
CONTINUOUS
 62
    7
370
   -1
100
AcDbLine
 10
-248.2339285075
 20
-241.679440764
 11
-246.0748296448
 21
-201.7361118042
  0
LINE
  5
AA
100
AcDbEntity
  8
0
  6
CONTINUOUS
 62
    7
370
   -1
100
AcDbLine
 10
412.5147747756
 20
-531.5827806529001
 11
477.0825824205
 21
-530.0558302998
  0
LINE
  5
AB
100
AcDbEntity
  8
0
  6
CONTINUOUS
 62
    7
370
   -1
100
AcDbLine
 10
306.0051929382
 20
-554.5104371719
 11
5.1631131652
 21
-554.5104371719
  0
LINE
  5
AC
100
AcDbEntity
  8
0
  6
CONTINUOUS
 62
    7
370
   -1
100
AcDbLine
 10
-988.9033006864
 20
-534.5096169619
 11
-737.85890221
 21
-534.5096169619
  0
LINE
  5
AD
100
AcDbEntity
  8
0
  6
CONTINUOUS
 62
    7
370
   -1
100
AcDbLine
 10
305.6929290101
 20
-534.5096167724
 11
5.1631131591
 21
-534.5096169618
  0
LINE
  5
AE
100
AcDbEntity
  8
0
  6
CONTINUOUS
 62
    7
370
   -1
100
AcDbLine
 10
1405.0502634762
 20
-503.5083456365
 11
1387.7874671856
 21
-503.5083456365
  0
LINE
  5
AF
100
AcDbEntity
  8
0
  6
CONTINUOUS
 62
    7
370
   -1
100
AcDbLine
 10
-111.1148530636
 20
-243.1697291188
 11
-112.4052713511
 21
-203.1895083279
  0
LINE
  5
B0
100
AcDbEntity
  8
0
  6
CONTINUOUS
 62
    7
370
   -1
100
AcDbLine
 10
5.1631131652
 20
-554.5104371719
 11
5.1631131652
 21
-534.5096169619
  0
LINE
  5
B1
100
AcDbEntity
  8
0
  6
CONTINUOUS
 62
    7
370
   -1
100
AcDbLine
 10
5.1631131652
 20
-534.5096169619
 11
4.8229006951
 21
-554.5075434681
  0
LINE
  5
B2
100
AcDbEntity
  8
0
  6
CONTINUOUS
 62
    7
370
   -1
100
AcDbLine
 10
3.0905212127
 20
-242.3612186813
 11
6.5815064638
 21
-202.5112958361
  0
LINE
  5
B3
100
AcDbEntity
  8
0
  6
CONTINUOUS
 62
    7
370
   -1
100
AcDbLine
 10
52.1414915015
 20
-246.0629356754
 11
54.6706713711
 21
-206.1404282695
  0
LINE
  5
B4
100
AcDbEntity
  8
0
  6
CONTINUOUS
 62
    7
370
   -1
100
AcDbLine
 10
-248.2339285075
 20
-241.679440764
 11
-422.604669818
 21
-232.2539952878
  0
LINE
  5
B5
100
AcDbEntity
  8
0
  6
CONTINUOUS
 62
    7
370
   -1
100
AcDbLine
 10
-246.0748296448
 20
-201.7361118042
 11
-523.228499187
 21
-186.7548323695
  0
LINE
  5
B6
100
AcDbEntity
  8
0
  6
CONTINUOUS
 62
    7
370
   -1
100
AcDbLine
 10
477.0825824205
 20
-273.9354330637
 11
455.7621061263
 21
-272.3135145259
  0
LINE
  5
B7
100
AcDbEntity
  8
0
  6
CONTINUOUS
 62
    7
370
   -1
100
AcDbLine
 10
-809.0151159498
 20
-219.0348321012
 11
-865.0190260376
 21
-232.4696449519
  0
LINE
  5
B8
100
AcDbEntity
  8
0
  6
CONTINUOUS
 62
    7
370
   -1
100
AcDbLine
 10
641.7084856118
 20
-54.2661025214
 11
643.9707030198
 21
-54.4050302279
  0
LINE
  5
B9
100
AcDbEntity
  8
0
  6
CONTINUOUS
 62
    7
370
   -1
100
AcDbLine
 10
412.5147747756
 20
-531.5827806509
 11
413.0064606867
 21
-551.5767871739999
  0
LINE
  5
BA
100
AcDbEntity
  8
0
  6
CONTINUOUS
 62
    7
370
   -1
100
AcDbLine
 10
477.0825824205
 20
-530.0558302977
 11
477.5387150185
 21
-549.9478682162
  0
LINE
  5
BB
100
AcDbEntity
  8
0
  6
CONTINUOUS
 62
    7
370
   -1
100
AcDbLine
 10
477.0825824205
 20
-273.9354330637
 11
477.0825824205
 21
-530.0558302998
  0
LINE
  5
BC
100
AcDbEntity
  8
0
  6
CONTINUOUS
 62
    7
370
   -1
100
AcDbLine
 10
458.3356592322
 20
-237.8986363024
 11
455.762106108
 21
-272.3135147658
  0
LINE
  5
BD
100
AcDbEntity
  8
0
  6
CONTINUOUS
 62
    7
370
   -1
100
AcDbLine
 10
479.7204094792
 20
-239.8684985195
 11
477.0825824023
 21
-273.9354333036
  0
LINE
  5
BE
100
AcDbEntity
  8
0
  6
CONTINUOUS
 62
    7
370
   -1
100
AcDbLine
 10
557.0154766485
 20
-240.4726821745
 11
557.0154865734
 21
-227.3510500588
  0
LINE
  5
BF
100
AcDbEntity
  8
0
  6
CONTINUOUS
 62
    7
370
   -1
100
AcDbLine
 10
568.1062263513001
 20
-528.0219125871
 11
568.1062263513001
 21
-281.4940365516
  0
LINE
  5
C0
100
AcDbEntity
  8
0
  6
CONTINUOUS
 62
    7
370
   -1
100
AcDbLine
 10
1405.0502634762
 20
-316.7433604674
 11
1405.0502634756
 21
-503.5083456365
  0
LINE
  5
C1
100
AcDbEntity
  8
0
  6
CONTINUOUS
 62
    7
370
   -1
100
AcDbLine
 10
-1394.9616348202
 20
787.4919718665
 11
-1394.9616348202
 21
412.4756346783
  0
LINE
  5
C2
100
AcDbEntity
  8
0
  6
CONTINUOUS
 62
    7
370
   -1
100
AcDbLine
 10
-1389.3715420927
 20
806.5043877328
 11
-1389.5828906033
 21
805.7885504205
  0
LINE
  5
C3
100
AcDbEntity
  8
0
  6
CONTINUOUS
 62
    7
370
   -1
100
AcDbLine
 10
-1285.1195037856
 20
358.4350059556
 11
-1285.0594281066
 21
355.1860861874
  0
LINE
  5
C4
100
AcDbEntity
  8
0
  6
CONTINUOUS
 62
    7
370
   -1
100
AcDbLine
 10
-1285.0515117019
 20
816.8127897981
 11
-1285.1195031577
 21
820.0084071254
  0
LINE
  5
C5
100
AcDbEntity
  8
0
  6
CONTINUOUS
 62
    7
370
   -1
100
AcDbLine
 10
-1285.1195031577
 20
379.990362506
 11
-1285.1195031577
 21
358.4336046294
  0
LINE
  5
C6
100
AcDbEntity
  8
0
  6
CONTINUOUS
 62
    7
370
   -1
100
AcDbLine
 10
-1285.1195031577
 20
820.0084071254
 11
-1285.0545371961
 21
844.8645148771
  0
LINE
  5
C7
100
AcDbEntity
  8
0
  6
CONTINUOUS
 62
    7
370
   -1
100
AcDbLine
 10
-1285.0907019501
 20
382.2431238096
 11
-1285.1195031577
 21
379.990362506
  0
LINE
  5
C8
100
AcDbEntity
  8
0
  6
CONTINUOUS
 62
    7
370
   -1
100
AcDbLine
 10
-1207.3333628779
 20
347.1003756535
 11
-1207.3333628779
 21
379.990362506
  0
LINE
  5
C9
100
AcDbEntity
  8
0
  6
CONTINUOUS
 62
    7
370
   -1
100
AcDbLine
 10
-1206.6547136901
 20
820.0084071254
 11
-1206.6547136896
 21
853.0094603607
  0
LINE
  5
CA
100
AcDbEntity
  8
0
  6
CONTINUOUS
 62
    7
370
   -1
100
AcDbLine
 10
-865.0190260376
 20
820.0084071254
 11
-865.0190260376
 21
860.0100475454
  0
LINE
  5
CB
100
AcDbEntity
  8
0
  6
CONTINUOUS
 62
    7
370
   -1
100
AcDbLine
 10
-809.0151159498
 20
820.0084071254
 11
-809.0151159498
 21
860.0100475454
  0
LINE
  5
CC
100
AcDbEntity
  8
0
  6
CONTINUOUS
 62
    7
370
   -1
100
AcDbLine
 10
-523.228499187
 20
860.0100475454
 11
-523.228499187
 21
820.0084071254
  0
LWPOLYLINE
  5
CD
100
AcDbEntity
  8
0
  6
CONTINUOUS
 62
    7
370
   -1
100
AcDbPolyline
 90
   13
 70
    0
 43
0
 10
1312.3868060759
 20
394.1391937609
 10
1317.1156318879
 20
395.3298934815
 10
1325.5459688148
 20
398.0899516192
 10
1333.1685862763
 20
401.4085048725
 10
1339.8775549785
 20
405.1385769023
 10
1345.4926330246
 20
409.0363153917
 10
1350.2311031719
 20
413.1299452934
 10
1354.2035386311
 20
417.426187829
 10
1357.4384263104
 20
421.9090489884
 10
1359.9593889456
 20
426.6071253431
 10
1361.7241476516
 20
431.429751915
 10
1362.7197036372
 20
436.2832010841
 10
1362.9705070769
 20
440.2364120822
  0
LINE
  5
CE
100
AcDbEntity
  8
0
  6
CONTINUOUS
 62
    7
370
   -1
100
AcDbLine
 10
1312.0921859002
 20
394.0730780357
 11
1312.3854248478
 21
394.1398591062
  0
LINE
  5
CF
100
AcDbEntity
  8
0
  6
CONTINUOUS
 62
    7
370
   -1
100
AcDbLine
 10
-420.4455709553
 20
339.988722086
 11
-420.4455709553
 21
379.990362506
  0
LINE
  5
D0
100
AcDbEntity
  8
0
  6
CONTINUOUS
 62
    7
370
   -1
100
AcDbLine
 10
-273.3497702645
 20
820.0084071254
 11
-273.3497702645
 21
860.0100475454
  0
LWPOLYLINE
  5
D1
100
AcDbEntity
  8
0
  6
CONTINUOUS
 62
    7
370
   -1
100
AcDbPolyline
 90
   11
 70
    0
 43
0
 10
1405.0502634762
 20
599.9993848157
 10
1329.3510225565
 20
582.6140915268001
 10
1254.9745615304
 20
566.2263261316
 10
1182.0374672251
 20
550.9105249635001
 10
1110.687073591
 20
536.7462329272
 10
1040.9425060075
 20
523.7608554556
 10
972.991838776
 20
511.9944683777
 10
907.108564437
 20
501.4903196265
 10
842.9384428465
 20
492.1949487712
 10
780.2603655854
 20
484.0997062315
 10
719.1678646613
 20
477.2470975572
  0
LINE
  5
D2
100
AcDbEntity
  8
0
  6
CONTINUOUS
 62
    7
370
   -1
100
AcDbLine
 10
477.0825824205
 20
299.9870816661
 11
-473.5781530806
 21
299.9870816661
  0
LINE
  5
D3
100
AcDbEntity
  8
0
  6
CONTINUOUS
 62
    7
370
   -1
100
AcDbLine
 10
-708.6200269083
 20
299.9870816661
 11
-1037.0043510562
 21
299.9870816661
  0
LINE
  5
D4
100
AcDbEntity
  8
0
  6
CONTINUOUS
 62
    7
370
   -1
100
AcDbLine
 10
-260.3529637128
 20
820.0084071254
 11
-260.3529637156
 21
860.0100475454
  0
LINE
  5
D5
100
AcDbEntity
  8
0
  6
CONTINUOUS
 62
    7
370
   -1
100
AcDbLine
 10
-246.0748296448
 20
339.988722086
 11
-246.0748296448
 21
379.990362506
  0
LWPOLYLINE
  5
D6
100
AcDbEntity
  8
0
  6
CONTINUOUS
 62
    7
370
   -1
100
AcDbPolyline
 90
    3
 70
    0
 43
0
 10
719.1678646613
 20
477.2470975572
 10
659.664518406
 20
471.6702869721
 10
601.8393065828
 20
467.4131571961
  0
LINE
  5
D7
100
AcDbEntity
  8
0
  6
CONTINUOUS
 62
    7
370
   -1
100
AcDbLine
 10
458.7451112565
 20
339.988722086
 11
-1051.1207404383
 21
339.988722086
  0
LINE
  5
D8
100
AcDbEntity
  8
0
  6
CONTINUOUS
 62
    7
370
   -1
100
AcDbLine
 10
-112.4052898085
 20
379.990362506
 11
-1285.1195031577
 21
379.990362506
  0
LINE
  5
D9
100
AcDbEntity
  8
0
  6
CONTINUOUS
 62
    7
370
   -1
100
AcDbLine
 10
-113.3589917665
 20
820.0084071254
 11
-113.3589917665
 21
860.0100475454
  0
LINE
  5
DA
100
AcDbEntity
  8
0
  6
CONTINUOUS
 62
    7
370
   -1
100
AcDbLine
 10
-112.4052898085
 20
339.988722086
 11
-112.4052898085
 21
379.990362506
  0
LINE
  5
DB
100
AcDbEntity
  8
0
  6
CONTINUOUS
 62
    7
370
   -1
100
AcDbLine
 10
1362.9698111114
 20
440.2364120844
 11
1351.2207572911
 21
440.2364120844
  0
LINE
  5
DC
100
AcDbEntity
  8
0
  6
CONTINUOUS
 62
    7
370
   -1
100
AcDbLine
 10
64.995309408
 20
446.9931102094
 11
675.0203258122
 21
446.9931102094
  0
LINE
  5
DD
100
AcDbEntity
  8
0
  6
CONTINUOUS
 62
    7
370
   -1
100
AcDbLine
 10
6.5814277822
 20
860.0100475454
 11
6.5814277822
 21
339.988722086
  0
LINE
  5
DE
100
AcDbEntity
  8
0
  6
CONTINUOUS
 62
    7
370
   -1
100
AcDbLine
 10
54.6706143673
 20
860.0100475454
 11
54.6706143673
 21
339.988722086
  0
LINE
  5
DF
100
AcDbEntity
  8
0
  6
CONTINUOUS
 62
    7
370
   -1
100
AcDbLine
 10
64.995309408
 20
753.005659422
 11
64.995309408
 21
446.9931102094
  0
LINE
  5
E0
100
AcDbEntity
  8
0
  6
CONTINUOUS
 62
    7
370
   -1
100
AcDbLine
 10
675.0203258122
 20
753.005659422
 11
64.995309408
 21
753.005659422
  0
LINE
  5
E1
100
AcDbEntity
  8
0
  6
CONTINUOUS
 62
    7
370
   -1
100
AcDbLine
 10
1362.969811574
 20
758.4119298903
 11
1351.2207572892
 21
758.4119298903
  0
LINE
  5
E2
100
AcDbEntity
  8
0
  6
CONTINUOUS
 62
    7
370
   -1
100
AcDbLine
 10
601.8393260959
 20
732.5859111208
 11
659.5641787257
 21
728.338081018
  0
LWPOLYLINE
  5
E3
100
AcDbEntity
  8
0
  6
CONTINUOUS
 62
    7
370
   -1
100
AcDbPolyline
 90
   12
 70
    0
 43
0
 10
659.5641787257
 20
728.338081018
 10
718.9836852472
 20
722.7727759003
 10
780.0147244806
 20
715.9313755908
 10
842.6507219543
 20
707.8456704017
 10
906.7942026762
 20
698.5573904893
 10
972.6705811526
 20
688.0562642671
 10
1040.6306706587
 20
676.2900964554
 10
1110.4015153344
 20
663.3041027631
 10
1181.8044039666
 20
649.1381576634
 10
1254.8018827253
 20
633.8203854774
 10
1329.2454938068
 20
617.4213258250001
 10
1405.0502634762
 20
599.9993848157
  0
LINE
  5
E4
100
AcDbEntity
  8
0
  6
CONTINUOUS
 62
    7
370
   -1
100
AcDbLine
 10
-113.5013564061
 20
819.970123283
 11
-132.5574315854
 21
814.8926045751
  0
LINE
  5
E5
100
AcDbEntity
  8
0
  6
CONTINUOUS
 62
    7
370
   -1
100
AcDbLine
 10
-132.5574315854
 20
814.8926045751
 11
-164.457082383
 21
806.5757241475
  0
LINE
  5
E6
100
AcDbEntity
  8
0
  6
CONTINUOUS
 62
    7
370
   -1
100
AcDbLine
 10
-164.457082383
 20
806.5757241475
 11
-188.0268550251
 21
800.5524861327
  0
LINE
  5
E7
100
AcDbEntity
  8
0
  6
CONTINUOUS
 62
    7
370
   -1
100
AcDbLine
 10
-188.0268550251
 20
800.5524861327
 11
-213.6070417278
 21
794.1601346800001
  0
LWPOLYLINE
  5
E8
100
AcDbEntity
  8
0
  6
CONTINUOUS
 62
    7
370
   -1
100
AcDbPolyline
 90
    3
 70
    0
 43
0
 10
-213.6070417278
 20
794.1601346800001
 10
-241.4021475438
 20
787.4269608819
 10
-256.1734226139
 20
783.939261014
  0
LINE
  5
E9
100
AcDbEntity
  8
0
  6
CONTINUOUS
 62
    7
370
   -1
100
AcDbLine
 10
-1052.3685404542
 20
860.0100475454
 11
-1065.9701121437
 21
859.918600362
  0
LINE
  5
EA
100
AcDbEntity
  8
0
  6
CONTINUOUS
 62
    7
370
   -1
100
AcDbLine
 10
-113.3589917665
 20
820.0084071254
 11
-1285.1195031577
 21
820.0084071254
  0
LINE
  5
EB
100
AcDbEntity
  8
0
  6
CONTINUOUS
 62
    7
370
   -1
100
AcDbLine
 10
458.7451113314
 20
860.0100475454
 11
-1052.3685404542
 21
860.0100475454
  0
LINE
  5
EC
100
AcDbEntity
  8
0
  6
CONTINUOUS
 62
    7
370
   -1
100
AcDbLine
 10
-1038.202436254
 20
900.0116879653
 11
-705.2149808015999
 21
900.0116879653
  0
LINE
  5
ED
100
AcDbEntity
  8
0
  6
CONTINUOUS
 62
    7
370
   -1
100
AcDbLine
 10
458.7451112565
 20
349.989132191
 11
458.7451112565
 21
339.988722086
  0
LINE
  5
EE
100
AcDbEntity
  8
0
  6
CONTINUOUS
 62
    7
370
   -1
100
AcDbLine
 10
458.7451112565
 20
850.0096374404
 11
458.7451112565
 21
860.0100475454
  0
LINE
  5
EF
100
AcDbEntity
  8
0
  6
CONTINUOUS
 62
    7
370
   -1
100
AcDbLine
 10
465.5346637587
 20
753.005659422
 11
465.5346637587
 21
676.337641512
  0
LINE
  5
F0
100
AcDbEntity
  8
0
  6
CONTINUOUS
 62
    7
370
   -1
100
AcDbLine
 10
465.5346637587
 20
523.6475775999
 11
465.5346637587
 21
446.9931102094
  0
LINE
  5
F1
100
AcDbEntity
  8
0
  6
CONTINUOUS
 62
    7
370
   -1
100
AcDbLine
 10
1275.8252407818
 20
813.7549261379
 11
1275.9464769364
 21
813.7291425574
  0
LINE
  5
F2
100
AcDbEntity
  8
0
  6
CONTINUOUS
 62
    7
370
   -1
100
AcDbLine
 10
557.015404197
 20
479.1021827244
 11
557.0154865734
 21
466.3965996976
  0
LINE
  5
F3
100
AcDbEntity
  8
0
  6
CONTINUOUS
 62
    7
370
   -1
100
AcDbLine
 10
557.0154865734
 20
733.6388345207
 11
557.0154884193
 21
720.8917604366
  0
LWPOLYLINE
  5
F4
100
AcDbEntity
  8
0
  6
CONTINUOUS
 62
    7
370
   -1
100
AcDbPolyline
 90
    3
 70
    0
 43
0
 10
1290.9705554604
 20
809.8888954056
 10
1283.6091134619
 20
811.9426446333
 10
1275.8193442013
 20
813.7561272279
  0
LINE
  5
F5
100
AcDbEntity
  8
0
  6
CONTINUOUS
 62
    7
370
   -1
100
AcDbLine
 10
675.0203258122
 20
446.9931102094
 11
675.0203258122
 21
472.9937827575
  0
LINE
  5
F6
100
AcDbEntity
  8
0
  6
CONTINUOUS
 62
    7
370
   -1
100
AcDbLine
 10
675.0203258122
 20
727.0049868749001
 11
675.0203258122
 21
753.005659422
  0
LINE
  5
F7
100
AcDbEntity
  8
0
  6
CONTINUOUS
 62
    7
370
   -1
100
AcDbLine
 10
689.6750822374
 20
349.989132191
 11
689.6750822374
 21
348.6253686597
  0
LINE
  5
F8
100
AcDbEntity
  8
0
  6
CONTINUOUS
 62
    7
370
   -1
100
AcDbLine
 10
689.6750822374
 20
850.0096374404
 11
689.6750822374
 21
851.3735043621
  0
LWPOLYLINE
  5
F9
100
AcDbEntity
  8
0
  6
CONTINUOUS
 62
    7
370
   -1
100
AcDbPolyline
 90
   17
 70
    0
 43
0
 10
1351.1450955865
 20
759.7800136181
 10
1350.9864018991
 20
763.1896214273
 10
1350.2685311254
 20
766.690249559
 10
1348.9729369745
 20
770.2761734892
 10
1347.137181817
 20
773.8760248789
 10
1344.791859975
 20
777.4240839166
 10
1341.9649861533
 20
780.9127528703
 10
1338.692952659
 20
784.3189672818
 10
1334.9914675462
 20
787.6376132691
 10
1330.8853203035
 20
790.8557666238
 10
1326.3766198649
 20
793.9689578735999
 10
1321.4741007152
 20
796.9669440692001
 10
1316.1752783532
 20
799.8424928868
 10
1310.4833364187
 20
802.5855361403
 10
1304.3899933613
 20
805.1864639638
 10
1297.8906201067
 20
807.6276178902
 10
1290.9705554604
 20
809.8888954056
  0
LWPOLYLINE
  5
FA
100
AcDbEntity
  8
0
  6
CONTINUOUS
 62
    7
370
   -1
100
AcDbPolyline
 90
    4
 70
    0
 43
0
 10
1362.9705060087
 20
758.4119298911
 10
1362.9342096558
 20
759.9388928905
 10
1362.8015700024
 20
761.7140067496
 10
1362.77588872
 20
761.9567870182
  0
LINE
  5
FB
100
AcDbEntity
  8
0
  6
CONTINUOUS
 62
    7
370
   -1
100
AcDbLine
 10
1351.2207572911
 20
440.2364120844
 11
1351.2207572911
 21
587.5283757956
  0
LINE
  5
FC
100
AcDbEntity
  8
0
  6
CONTINUOUS
 62
    7
370
   -1
100
AcDbLine
 10
1351.2207572848
 20
612.4703938361999
 11
1351.2207572892
 21
758.4119298903
  0
LINE
  5
FD
100
AcDbEntity
  8
0
  6
CONTINUOUS
 62
    7
370
   -1
100
AcDbLine
 10
1362.969812656
 20
758.4119298903
 11
1362.9698126541
 21
609.7668879653
  0
LINE
  5
FE
100
AcDbEntity
  8
0
  6
CONTINUOUS
 62
    7
370
   -1
100
AcDbLine
 10
1362.9698126509
 20
590.2323429616
 11
1362.9698126509
 21
440.2364120844
  0
LWPOLYLINE
  5
FF
100
AcDbEntity
  8
0
  6
CONTINUOUS
 62
    7
370
   -1
100
AcDbPolyline
 90
   13
 70
    0
 43
0
 10
1362.775912061
 20
761.9565791863999
 10
1362.1705492724
 20
765.3883611508001
 10
1360.4574224197
 20
770.3414255663999
 10
1357.9429897657
 20
774.8709406178
 10
1354.6382332338
 20
779.1454697354
 10
1350.5423478841
 20
783.2092705056
 10
1345.6039618064
 20
787.1305275065999
 10
1339.7960370239
 20
790.9537277908
 10
1332.7026211475
 20
794.875855727
 10
1324.4151112244
 20
798.7825323401
 10
1313.1118952008
 20
803.2803215589
 10
1296.7614101994
 20
808.5727067190001
 10
1275.9581239763
 20
813.7269535124
  0
LWPOLYLINE
  5
100
100
AcDbEntity
  8
0
  6
CONTINUOUS
 62
    7
370
   -1
100
AcDbPolyline
 90
    7
 70
    0
 43
0
 10
1717.9611708817
 20
-549.946974804
 10
1717.6090366991
 20
-549.4954604965
 10
1717.3153738446
 20
-549.1703971911001
 10
1717.0759313873
 20
-548.7700832989
 10
1716.9034621196
 20
-548.3084801204
 10
1716.8107188335
 20
-547.8925366084
 10
1716.7953526082
 20
-547.7040656292
  0
LWPOLYLINE
  5
101
100
AcDbEntity
  8
0
  6
CONTINUOUS
 62
    7
370
   -1
100
AcDbPolyline
 90
    9
 70
    0
 43
0
 10
1699.9870290459
 20
-531.5827806509
 10
1700.2348692815
 20
-534.7213777502
 10
1700.9700518934
 20
-537.7746860137
 10
1702.1694577943
 20
-540.6654763919
 10
1703.8044247313
 20
-543.3323651306
 10
1705.840193266
 20
-545.71642547
 10
1708.2287125998
 20
-547.7567470186
 10
1710.9204106089
 20
-549.4045760768
 10
1713.8344786796
 20
-550.6074193846
  0
LINE
  5
102
100
AcDbEntity
  8
0
  6
CONTINUOUS
 62
    7
370
   -1
100
AcDbLine
 10
1699.9870816661
 20
-230.3614431455
 11
1699.9870816661
 21
-534.5096167724
  0
LINE
  5
103
100
AcDbEntity
  8
0
  6
CONTINUOUS
 62
    7
370
   -1
100
AcDbLine
 10
1702.0593935637
 20
-528.0219125871
 11
1702.0593935637
 21
-281.4940365516
  0
LWPOLYLINE
  5
104
100
AcDbEntity
  8
0
  6
CONTINUOUS
 62
    7
370
   -1
100
AcDbPolyline
 90
    6
 70
    0
 43
0
 10
1717.9531273382
 20
-247.836252663
 10
1718.0911627176
 20
-246.0575302679
 10
1718.2925888171
 20
-244.3376534952
 10
1718.547459764
 20
-242.7501525676
 10
1718.8458296859
 20
-241.3202740806
 10
1719.1910138735
 20
-239.8690650108
  0
LINE
  5
105
100
AcDbEntity
  8
0
  6
CONTINUOUS
 62
    7
370
   -1
100
AcDbLine
 10
1714.2360572503
 20
-549.2063541447
 11
1717.9613143476
 21
-549.9478682162
  0
LWPOLYLINE
  5
106
100
AcDbEntity
  8
0
  6
CONTINUOUS
 62
    7
370
   -1
100
AcDbPolyline
 90
    3
 70
    0
 43
0
 10
1713.8344786796
 20
-550.6074193846
 10
1716.8807048163
 20
-551.3342643608
 10
1719.987901814
 20
-551.5767871739999
  0
LINE
  5
107
100
AcDbEntity
  8
0
  6
CONTINUOUS
 62
    7
370
   -1
100
AcDbLine
 10
1716.7953526082
 20
-547.7040656292
 11
1716.7934505984
 21
-547.31172971
  0
LINE
  5
108
100
AcDbEntity
  8
0
  6
CONTINUOUS
 62
    7
370
   -1
100
AcDbLine
 10
1719.9879018761
 20
-237.1976842899
 11
1719.9879018761
 21
-270.676830598
  0
LINE
  5
109
100
AcDbEntity
  8
0
  6
CONTINUOUS
 62
    7
370
   -1
100
AcDbLine
 10
1719.9879018761
 20
-541.6489270012
 11
1719.9879018761
 21
-554.5104371719
  0
LINE
  5
10A
100
AcDbEntity
  8
0
  6
CONTINUOUS
 62
    7
370
   -1
100
AcDbLine
 10
1739.988722086
 20
-190.0510972459
 11
1739.988722086
 21
-232.4232536007
  0
LINE
  5
10B
100
AcDbEntity
  8
0
  6
CONTINUOUS
 62
    7
370
   -1
100
AcDbLine
 10
1717.8751673879
 20
-249.8598840932
 11
1717.9312920179
 21
-248.2453457525
  0
LINE
  5
10C
100
AcDbEntity
  8
0
  6
CONTINUOUS
 62
    7
370
   -1
100
AcDbLine
 10
1717.9312920179
 20
-248.2453457525
 11
1717.9531273382
 21
-247.836252663
  0
LINE
  5
10D
100
AcDbEntity
  8
0
  6
CONTINUOUS
 62
    7
370
   -1
100
AcDbLine
 10
1719.5259802748
 20
-267.7448925729
 11
1719.1360055424
 21
-265.2253136984
  0
LWPOLYLINE
  5
10E
100
AcDbEntity
  8
0
  6
CONTINUOUS
 62
    7
370
   -1
100
AcDbPolyline
 90
    8
 70
    0
 43
0
 10
1719.1360055424
 20
-265.2253136984
 10
1718.7925841542
 20
-262.7372949672
 10
1718.4929354857
 20
-260.3783185634
 10
1718.24540141
 20
-258.1307627017
 10
1718.0563224642
 20
-255.9139813551
 10
1717.9289220312
 20
-253.8305721832
 10
1717.8692041176
 20
-251.8263296785
 10
1717.8751673879
 20
-249.8598840932
  0
LINE
  5
10F
100
AcDbEntity
  8
0
  6
CONTINUOUS
 62
    7
370
   -1
100
AcDbLine
 10
1749.989132191
 20
-551.5775558745
 11
1749.989132191
 21
-544.6625276557
  0
LINE
  5
110
100
AcDbEntity
  8
0
  6
CONTINUOUS
 62
    7
370
   -1
100
AcDbLine
 10
1749.989132191
 20
-254.9816320279
 11
1749.989132191
 21
-232.4232536007
  0
LINE
  5
111
100
AcDbEntity
  8
0
  6
CONTINUOUS
 62
    7
370
   -1
100
AcDbLine
 10
1722.5123308301
 20
-267.4198927815
 11
1719.9879018761
 21
-270.676830598
  0
LWPOLYLINE
  5
112
100
AcDbEntity
  8
0
  6
CONTINUOUS
 62
    7
370
   -1
100
AcDbPolyline
 90
    7
 70
    0
 43
0
 10
1719.5246990145
 20
-267.7425318285
 10
1716.3768262841
 20
-271.5419616714
 10
1713.7204267283
 20
-275.7062675808
 10
1711.5910547347
 20
-280.1712480727
 10
1710.0266473831
 20
-284.8633796337
 10
1709.0625627064
 20
-289.7075055484
 10
1708.7122040696
 20
-294.630816264
  0
LINE
  5
113
100
AcDbEntity
  8
0
  6
CONTINUOUS
 62
    7
370
   -1
100
AcDbLine
 10
1719.9879018761
 20
-554.5104371719
 11
2260.0100475454
 21
-554.5104371719
  0
LINE
  5
114
100
AcDbEntity
  8
0
  6
CONTINUOUS
 62
    7
370
   -1
100
AcDbLine
 10
2263.9286595136
 20
-551.5775344966
 11
2250.0096374404
 21
-551.5775558745
  0
LINE
  5
115
100
AcDbEntity
  8
0
  6
CONTINUOUS
 62
    7
370
   -1
100
AcDbLine
 10
1719.9879018761
 20
-551.5775558745
 11
1749.989132191
 21
-551.5775558745
  0
LINE
  5
116
100
AcDbEntity
  8
0
  6
CONTINUOUS
 62
    7
370
   -1
100
AcDbLine
 10
1749.989132191
 20
-544.6625276557
 11
1730.2687279159
 21
-544.6625276557
  0
LINE
  5
117
100
AcDbEntity
  8
0
  6
CONTINUOUS
 62
    7
370
   -1
100
AcDbLine
 10
1779.990362506
 20
-201.5585215366
 11
1779.990362506
 21
-190.0510972459
  0
LINE
  5
118
100
AcDbEntity
  8
0
  6
CONTINUOUS
 62
    7
370
   -1
100
AcDbLine
 10
1986.2120939958
 20
-509.2982679236
 11
1840.2364120844
 21
-509.2982679236
  0
LINE
  5
119
100
AcDbEntity
  8
0
  6
CONTINUOUS
 62
    7
370
   -1
100
AcDbLine
 10
2158.4119298903
 20
-509.298267928
 11
2013.7866756361
 21
-509.2982679275
  0
LINE
  5
11A
100
AcDbEntity
  8
0
  6
CONTINUOUS
 62
    7
370
   -1
100
AcDbLine
 10
1879.0876461105
 20
-114.9123114886
 11
1879.0879086234
 21
-114.9118602793
  0
LINE
  5
11B
100
AcDbEntity
  8
0
  6
CONTINUOUS
 62
    7
370
   -1
100
AcDbLine
 10
1879.5478385136
 20
-114.131853228
 11
1879.0756970584
 21
-114.9343636478
  0
LINE
  5
11C
100
AcDbEntity
  8
0
  6
CONTINUOUS
 62
    7
370
   -1
100
AcDbLine
 10
2004.0387511652
 20
-503.5083456365
 11
1995.9600184663
 21
-503.5083456365
  0
LINE
  5
11D
100
AcDbEntity
  8
0
  6
CONTINUOUS
 62
    7
370
   -1
100
AcDbLine
 10
1840.2364120844
 20
-509.2982679236
 11
1840.2364120844
 21
-471.2329063055
  0
LINE
  5
11E
100
AcDbEntity
  8
0
  6
CONTINUOUS
 62
    7
370
   -1
100
AcDbLine
 10
2012.4703938362
 20
-471.2329063194
 11
2158.4119298903
 21
-471.2329063209
  0
LINE
  5
11F
100
AcDbEntity
  8
0
  6
CONTINUOUS
 62
    7
370
   -1
100
AcDbLine
 10
1840.2364120844
 20
-471.2329063055
 11
1987.5283757956
 21
-471.2329063055
  0
LINE
  5
120
100
AcDbEntity
  8
0
  6
CONTINUOUS
 62
    7
370
   -1
100
AcDbLine
 10
1865.3823161251
 20
-223.3959445556
 11
1865.4436967864
 21
-224.5300276395
  0
LINE
  5
121
100
AcDbEntity
  8
0
  6
CONTINUOUS
 62
    7
370
   -1
100
AcDbLine
 10
1865.4436967864
 20
-224.5300276395
 11
1865.508726192
 21
-225.8913631671
  0
LINE
  5
122
100
AcDbEntity
  8
0
  6
CONTINUOUS
 62
    7
370
   -1
100
AcDbLine
 10
1865.4388079154
 20
-222.9701776997
 11
1865.6069520541
 21
-228.2347074954
  0
LINE
  5
123
100
AcDbEntity
  8
0
  6
CONTINUOUS
 62
    7
370
   -1
100
AcDbLine
 10
1865.6195013347
 20
-227.0753951709
 11
1865.8060639583
 21
-233.8404960465
  0
LINE
  5
124
100
AcDbEntity
  8
0
  6
CONTINUOUS
 62
    7
370
   -1
100
AcDbLine
 10
1865.7939498139
 20
-231.7583704902
 11
1866.0072679202
 21
-240.6402066135
  0
LINE
  5
125
100
AcDbEntity
  8
0
  6
CONTINUOUS
 62
    7
370
   -1
100
AcDbLine
 10
1865.9614093081
 20
-237.0347338096
 11
1866.2697148031
 21
-249.1879381234
  0
LINE
  5
126
100
AcDbEntity
  8
0
  6
CONTINUOUS
 62
    7
370
   -1
100
AcDbLine
 10
1866.1755099853
 20
-247.3804018617
 11
1866.2954622516
 21
-253.074521358
  0
LINE
  5
127
100
AcDbEntity
  8
0
  6
CONTINUOUS
 62
    7
370
   -1
100
AcDbLine
 10
1846.9931102094
 20
-206.7946899556
 11
1846.9931102094
 21
-253.074521358
  0
LWPOLYLINE
  5
128
100
AcDbEntity
  8
0
  6
CONTINUOUS
 62
    7
370
   -1
100
AcDbPolyline
 90
    6
 70
    0
 43
0
 10
1805.4905482094
 20
-201.5585215366
 10
1801.7752403805
 20
-198.7536783573
 10
1796.7708400885
 20
-195.9951281182
 10
1791.4053457233
 20
-193.9715280396
 10
1785.7722684748
 20
-192.730122937
 10
1779.990362506
 20
-192.310666328
  0
LINE
  5
129
100
AcDbEntity
  8
0
  6
CONTINUOUS
 62
    7
370
   -1
100
AcDbLine
 10
1999.9993848131
 20
-503.5083456365
 11
1999.9993848157
 21
-316.7433604674
  0
LWPOLYLINE
  5
12A
100
AcDbEntity
  8
0
  6
CONTINUOUS
 62
    7
370
   -1
100
AcDbPolyline
 90
   13
 70
    0
 43
0
 10
2132.5859111208
 20
-181.8843068696
 10
2128.338081018
 20
-184.9489873444
 10
2122.7727759003
 20
-189.3477778965
 10
2115.9313755908
 20
-195.0504772373
 10
2107.8456704017
 20
-202.1476892323
 10
2098.5573904893
 20
-210.6867526394
 10
2088.0562642671
 20
-220.7672614915
 10
2076.2900964554
 20
-232.5003521066
 10
2063.3041027631
 20
-245.898736387
 10
2049.1381576634
 20
-261.0089954527
 10
2033.8203854774
 20
-277.8406579687
 10
2017.421325825
 20
-296.4219116033
 10
1999.9993848157
 20
-316.7433604671
  0
LWPOLYLINE
  5
12B
100
AcDbEntity
  8
0
  6
CONTINUOUS
 62
    7
370
   -1
100
AcDbPolyline
 90
   12
 70
    0
 43
0
 10
1999.9993848157
 20
-316.7433604674
 10
1982.6140915268
 20
-296.4463004321
 10
1966.2263261316
 20
-277.8827533583
 10
1950.9105249635
 20
-261.0617430958
 10
1936.7462329272
 20
-245.9561980952
 10
1923.7608554556
 20
-232.557090044
 10
1911.9944683777
 20
-220.8193130816
 10
1901.4903196265
 20
-210.7315630765
 10
1892.1949487712
 20
-202.1834065296
 10
1884.0997062315
 20
-195.0760276448
 10
1877.2470975572
 20
-189.3632691813
 10
1871.6702869721
 20
-184.9561483198
  0
LINE
  5
12C
100
AcDbEntity
  8
0
  6
CONTINUOUS
 62
    7
370
   -1
100
AcDbLine
 10
1871.6702869721
 20
-184.9561483198
 11
1867.4131571961
 21
-181.8843259999
  0
LWPOLYLINE
  5
12D
100
AcDbEntity
  8
0
  6
CONTINUOUS
 62
    7
370
   -1
100
AcDbPolyline
 90
    6
 70
    0
 43
0
 10
2120.9122662247
 20
-114.9142728344
 10
2120.8241598241
 20
-115.1660375462
 10
2120.1857089245
 20
-115.4111531178
 10
2119.0337275882
 20
-115.6917331798
 10
2117.4158058381
 20
-115.9812727096
 10
2115.2588825105
 20
-116.1972860531
  0
LINE
  5
12E
100
AcDbEntity
  8
0
  6
CONTINUOUS
 62
    7
370
   -1
100
AcDbLine
 10
1749.989132191
 20
-254.9789531452
 11
1748.6253686597
 21
-254.9789531452
  0
LINE
  5
12F
100
AcDbEntity
  8
0
  6
CONTINUOUS
 62
    7
370
   -1
100
AcDbLine
 10
2250.0096374404
 20
-254.9789531452
 11
2251.3735043621
 21
-254.9789531452
  0
LINE
  5
130
100
AcDbEntity
  8
0
  6
CONTINUOUS
 62
    7
370
   -1
100
AcDbLine
 10
1846.9931102094
 20
-253.074521358
 11
1872.9937827575
 21
-253.074521358
  0
LINE
  5
131
100
AcDbEntity
  8
0
  6
CONTINUOUS
 62
    7
370
   -1
100
AcDbLine
 10
2127.0049868749
 20
-253.074521358
 11
2153.005659422
 21
-253.074521358
  0
LINE
  5
132
100
AcDbEntity
  8
0
  6
CONTINUOUS
 62
    7
370
   -1
100
AcDbLine
 10
1749.989132191
 20
-232.4232536007
 11
1739.988722086
 21
-232.4232536007
  0
LINE
  5
133
100
AcDbEntity
  8
0
  6
CONTINUOUS
 62
    7
370
   -1
100
AcDbLine
 10
2250.0096374404
 20
-232.4232536007
 11
2260.0100475454
 21
-232.4232536007
  0
LWPOLYLINE
  5
134
100
AcDbEntity
  8
0
  6
CONTINUOUS
 62
    7
370
   -1
100
AcDbPolyline
 90
    8
 70
    0
 43
0
 10
1745.2301600987
 20
-255.1522498972
 10
1741.6862107454
 20
-255.7104460749
 10
1738.1981366062
 20
-256.6688743872
 10
1734.7378439118
 20
-258.0504353214
 10
1731.3896139699
 20
-259.8295450703
 10
1728.2254574825
 20
-261.9973754084
 10
1725.2540924971
 20
-264.5377229548
 10
1722.5123308301
 20
-267.4198927815
  0
LWPOLYLINE
  5
135
100
AcDbEntity
  8
0
  6
CONTINUOUS
 62
    7
370
   -1
100
AcDbPolyline
 90
    9
 70
    0
 43
0
 10
2220.008407124
 20
-186.7548365106
 10
2215.0218013579
 20
-187.0670428464
 10
2210.1128120209
 20
-187.9987914493
 10
2205.3580529042
 20
-189.5356654255
 10
2200.8317044698
 20
-191.6537256808
 10
2196.6044487084
 20
-194.3200046597
 10
2192.7421787748
 20
-197.4930318988
 10
2189.305150542
 20
-201.1234706032
 10
2188.9859412477
 20
-201.5585215366
  0
LWPOLYLINE
  5
136
100
AcDbEntity
  8
0
  6
CONTINUOUS
 62
    7
370
   -1
100
AcDbPolyline
 90
   13
 70
    0
 43
0
 10
1739.9887220864
 20
-201.5598783643
 10
1738.8849583161
 20
-201.5753452117
 10
1733.4209309736
 20
-202.1067455376
 10
1728.0409551993
 20
-203.3898133487
 10
1722.8594936417
 20
-205.4135486628
 10
1717.9884101576
 20
-208.1571831499
 10
1713.5277899284
 20
-211.5671396145
 10
1709.5745978619
 20
-215.5774389156
 10
1706.2221531705
 20
-220.1169120263
 10
1703.5380675001
 20
-225.0920314615
 10
1701.5756708802
 20
-230.3973448238
 10
1700.3848028492
 20
-235.9230967337
 10
1699.9870816661
 20
-241.5615750178
  0
LINE
  5
137
100
AcDbEntity
  8
0
  6
CONTINUOUS
 62
    7
370
   -1
100
AcDbLine
 10
2153.005659422
 20
-206.7946899556
 11
2132.9916318114
 21
-206.7946899556
  0
LINE
  5
138
100
AcDbEntity
  8
0
  6
CONTINUOUS
 62
    7
370
   -1
100
AcDbLine
 10
1867.0030480864
 20
-206.7946899556
 11
1846.9931102094
 21
-206.7946899556
  0
LINE
  5
139
100
AcDbEntity
  8
0
  6
CONTINUOUS
 62
    7
370
   -1
100
AcDbLine
 10
2260.0100475454
 20
-206.1413280591
 11
2132.9658441865
 21
-206.1413280591
  0
LINE
  5
13A
100
AcDbEntity
  8
0
  6
CONTINUOUS
 62
    7
370
   -1
100
AcDbLine
 10
1867.0302095984
 20
-206.1413280591
 11
1739.988722086
 21
-206.1413280591
  0
LINE
  5
13B
100
AcDbEntity
  8
0
  6
CONTINUOUS
 62
    7
370
   -1
100
AcDbLine
 10
2260.0100475454
 20
-202.5121939962
 11
2132.8361954594
 21
-202.5121939962
  0
LINE
  5
13C
100
AcDbEntity
  8
0
  6
CONTINUOUS
 62
    7
370
   -1
100
AcDbLine
 10
1867.1592126539
 20
-202.5121939962
 11
1739.988722086
 21
-202.5121939962
  0
LINE
  5
13D
100
AcDbEntity
  8
0
  6
CONTINUOUS
 62
    7
370
   -1
100
AcDbLine
 10
2260.0100475454
 20
-201.5585215366
 11
2132.8040237798
 21
-201.5585215366
  0
LINE
  5
13E
100
AcDbEntity
  8
0
  6
CONTINUOUS
 62
    7
370
   -1
100
AcDbLine
 10
1867.1920042524
 20
-201.5585215366
 11
1739.988722086
 21
-201.5585215366
  0
LINE
  5
13F
100
AcDbEntity
  8
0
  6
CONTINUOUS
 62
    7
370
   -1
100
AcDbLine
 10
2220.0084071254
 20
-201.0198732392
 11
2260.0100475454
 21
-201.019873284
  0
LINE
  5
140
100
AcDbEntity
  8
0
  6
CONTINUOUS
 62
    7
370
   -1
100
AcDbLine
 10
2220.0084071254
 20
-200.2625515576
 11
2260.0100475454
 21
-200.2625515576
  0
LINE
  5
141
100
AcDbEntity
  8
0
  6
CONTINUOUS
 62
    7
370
   -1
100
AcDbLine
 10
1739.988722086
 20
-192.310666328
 11
1779.990362506
 21
-192.310666328
  0
LINE
  5
142
100
AcDbEntity
  8
0
  6
CONTINUOUS
 62
    7
370
   -1
100
AcDbLine
 10
2133.703581656
 20
-253.074521358
 11
2133.8693810354
 21
-245.4146461139
  0
LINE
  5
143
100
AcDbEntity
  8
0
  6
CONTINUOUS
 62
    7
370
   -1
100
AcDbLine
 10
2133.7325304414
 20
-249.0285245021
 11
2134.0417509719
 21
-236.8858820481
  0
LINE
  5
144
100
AcDbEntity
  8
0
  6
CONTINUOUS
 62
    7
370
   -1
100
AcDbLine
 10
2134.0521612409
 20
-238.4604212831
 11
2134.2086622696
 21
-231.6438057532
  0
LINE
  5
145
100
AcDbEntity
  8
0
  6
CONTINUOUS
 62
    7
370
   -1
100
AcDbLine
 10
2134.2180330615
 20
-233.0659392303
 11
2134.3816107628
 21
-227.0105740976
  0
LINE
  5
146
100
AcDbEntity
  8
0
  6
CONTINUOUS
 62
    7
370
   -1
100
AcDbLine
 10
2134.3706065042
 20
-228.7808552579
 11
2134.4779366163
 21
-226.1725823222
  0
LINE
  5
147
100
AcDbEntity
  8
0
  6
CONTINUOUS
 62
    7
370
   -1
100
AcDbLine
 10
2134.3816107628
 20
-227.0105740976
 11
2134.5600445955
 21
-222.9716094722
  0
LWPOLYLINE
  5
148
100
AcDbEntity
  8
0
  6
CONTINUOUS
 62
    7
370
   -1
100
AcDbPolyline
 90
    3
 70
    0
 43
0
 10
2134.5461815678
 20
-224.7104442273
 10
2134.6105898732
 20
-223.494912932
 10
2134.6162621262
 20
-223.396431029
  0
LINE
  5
149
100
AcDbEntity
  8
0
  6
CONTINUOUS
 62
    7
370
   -1
100
AcDbLine
 10
1739.988722086
 20
-190.0510972459
 11
1779.990362506
 21
-190.0510972459
  0
LINE
  5
14A
100
AcDbEntity
  8
0
  6
CONTINUOUS
 62
    7
370
   -1
100
AcDbLine
 10
2260.0100475454
 20
-186.7548323695
 11
2220.0084071254
 21
-186.7548323695
  0
LINE
  5
14B
100
AcDbEntity
  8
0
  6
CONTINUOUS
 62
    7
370
   -1
100
AcDbLine
 10
2153.005659422
 20
-253.074521358
 11
2153.005659422
 21
-206.7946899556
  0
LINE
  5
14C
100
AcDbEntity
  8
0
  6
CONTINUOUS
 62
    7
370
   -1
100
AcDbLine
 10
2158.4119298903
 20
-509.298267928
 11
2158.4119298903
 21
-471.2329063209
  0
LWPOLYLINE
  5
14D
100
AcDbEntity
  8
0
  6
CONTINUOUS
 62
    7
370
   -1
100
AcDbPolyline
 90
    6
 70
    0
 43
0
 10
1884.7393521556
 20
-116.1978835781
 10
1882.593978684
 20
-115.9822295697
 10
1880.9810578174
 20
-115.6934149384
 10
1879.8282198843
 20
-115.4147005334
 10
1879.1836582109
 20
-115.1692060122
 10
1879.0876461105
 20
-114.9123114886
  0
LWPOLYLINE
  5
14E
100
AcDbEntity
  8
0
  6
CONTINUOUS
 62
    7
370
   -1
100
AcDbPolyline
 90
    9
 70
    0
 43
0
 10
2281.6335081423
 20
-243.6654033213
 10
2285.6516173669
 20
-246.6136602292
 10
2289.2729543697
 20
-250.0318733844
 10
2292.4369597163
 20
-253.8714634101
 10
2295.0934356829
 20
-258.0736164488
 10
2297.2050159512
 20
-262.5593421533
 10
2298.7493289044
 20
-267.2825639778
 10
2299.6937309662
 20
-272.1996700182
 10
2300.0116879653
 20
-277.2271043842
  0
LWPOLYLINE
  5
14F
100
AcDbEntity
  8
0
  6
CONTINUOUS
 62
    7
370
   -1
100
AcDbPolyline
 90
    3
 70
    0
 43
0
 10
2120.9240763685
 20
-114.934656586
 10
2120.42916878
 20
-114.0937883164
 10
2119.9317401785
 20
-113.2933523298
  0
LINE
  5
150
100
AcDbEntity
  8
0
  6
CONTINUOUS
 62
    7
370
   -1
100
AcDbLine
 10
2120.9117699043
 20
-114.9134172681
 11
2120.9122662247
 21
-114.9142728344
  0
LINE
  5
151
100
AcDbEntity
  8
0
  6
CONTINUOUS
 62
    7
370
   -1
100
AcDbLine
 10
2220.0084071254
 20
-201.5585215366
 11
2220.0084071254
 21
-186.7914728233
  0
LINE
  5
152
100
AcDbEntity
  8
0
  6
CONTINUOUS
 62
    7
370
   -1
100
AcDbLine
 10
2120.4174076283
 20
-114.6384666734
 11
2120.9117699043
 21
-114.9134172681
  0
LINE
  5
153
100
AcDbEntity
  8
0
  6
CONTINUOUS
 62
    7
370
   -1
100
AcDbLine
 10
2250.0096374404
 20
-232.4232536007
 11
2250.0096374404
 21
-252.9566505498
  0
LINE
  5
154
100
AcDbEntity
  8
0
  6
CONTINUOUS
 62
    7
370
   -1
100
AcDbLine
 10
2250.0096374404
 20
-544.7325789508
 11
2250.0096374404
 21
-551.5775558745
  0
LINE
  5
155
100
AcDbEntity
  8
0
  6
CONTINUOUS
 62
    7
370
   -1
100
AcDbLine
 10
2260.0100475454
 20
-186.7914728233
 11
2260.0100475454
 21
-232.4232536063
  0
LINE
  5
156
100
AcDbEntity
  8
0
  6
CONTINUOUS
 62
    7
370
   -1
100
AcDbLine
 10
2250.009508899
 20
-254.9816320279
 11
2249.5763982786
 21
-252.8411189228
  0
LWPOLYLINE
  5
157
100
AcDbEntity
  8
0
  6
CONTINUOUS
 62
    7
370
   -1
100
AcDbPolyline
 90
    8
 70
    0
 43
0
 10
2249.5763982786
 20
-252.8411189228
 10
2249.2013905499
 20
-250.7426740599
 10
2248.8815660223
 20
-248.7785318334
 10
2248.6256837679
 20
-246.9417802386
 10
2248.4406813058
 20
-245.1503760648
 10
2248.3291036042
 20
-243.4962759131
 10
2248.2970869094
 20
-241.8886000393
 10
2248.3316868849
 20
-240.5585617936
  0
LINE
  5
158
100
AcDbEntity
  8
0
  6
CONTINUOUS
 62
    7
370
   -1
100
AcDbLine
 10
2280.0108677553
 20
-269.1781936585
 11
2280.0108677553
 21
-237.1976842899
  0
LINE
  5
159
100
AcDbEntity
  8
0
  6
CONTINUOUS
 62
    7
370
   -1
100
AcDbLine
 10
2280.0107807524
 20
-548.3327492388
 11
2280.0108438815
 21
-529.4618011385001
  0
LWPOLYLINE
  5
15A
100
AcDbEntity
  8
0
  6
CONTINUOUS
 62
    7
370
   -1
100
AcDbPolyline
 90
   13
 70
    0
 43
0
 10
2300.0116879653
 20
-241.5623941381
 10
2299.6139662289
 20
-235.9239088281
 10
2298.4230965896
 20
-230.3981503117
 10
2296.4606974213
 20
-225.0928307796
 10
2293.7766085004
 20
-220.1177061339
 10
2290.4241600891
 20
-215.5782291268
 10
2286.470964397
 20
-211.5679275771
 10
2282.0103411963
 20
-208.157970429
 10
2277.1392560107
 20
-205.414336604
 10
2271.9577945636
 20
-203.390602831
 10
2266.577821464
 20
-202.1075372912
 10
2261.113800098
 20
-201.5761396293
 10
2260.0100475452
 20
-201.5606733035
  0
LINE
  5
15B
100
AcDbEntity
  8
0
  6
CONTINUOUS
 62
    7
370
   -1
100
AcDbLine
 10
2300.0116879653
 20
-229.4276792675
 11
2300.0116879653
 21
-514.508796752
  0
LWPOLYLINE
  5
15C
100
AcDbEntity
  8
0
  6
CONTINUOUS
 62
    7
370
   -1
100
AcDbPolyline
 90
    8
 70
    0
 43
0
 10
2300.0115485208
 20
-509.1431314072
 10
2299.6859329988
 20
-514.2316626948
 10
2298.7537097544
 20
-519.0816758691
 10
2297.2976350122
 20
-523.600256375
 10
2295.3654724997
 20
-527.8325473318
 10
2292.9655405525
 20
-531.804618365
 10
2290.1247677763
 20
-535.4643487095
 10
2286.8542806288
 20
-538.7881158136
  0
LINE
  5
15D
100
AcDbEntity
  8
0
  6
CONTINUOUS
 62
    7
370
   -1
100
AcDbLine
 10
2286.8542806288
 20
-538.7881158136
 11
2283.206633113
 21
-541.7215963657
  0
ARC
  5
15E
100
AcDbEntity
  8
0
  6
CONTINUOUS
 62
    7
370
   -1
100
AcDbCircle
 10
-1364.686602516
 20
-437.3835161649
 40
38.399295182
100
AcDbArc
 50
223.4968566213
 51
223.6634214207
  0
ARC
  5
15F
100
AcDbEntity
  8
0
  6
CONTINUOUS
 62
    7
370
   -1
100
AcDbCircle
 10
-1356.645753977
 20
-477.6285839745
 40
38.3618619639
100
AcDbArc
 50
151.166691981
 51
159.02264091
  0
ARC
  5
160
100
AcDbEntity
  8
0
  6
CONTINUOUS
 62
    7
370
   -1
100
AcDbCircle
 10
-1356.8635700266
 20
-477.5202932799
 40
38.1188261
100
AcDbArc
 50
148.5216421481
 51
151.1513919272
  0
ARC
  5
161
100
AcDbEntity
  8
0
  6
CONTINUOUS
 62
    7
370
   -1
100
AcDbCircle
 10
-1365.4627519302
 20
-438.1155501814
 40
37.3323972842
100
AcDbArc
 50
222.2776881274
 51
223.5017812463
  0
ARC
  5
162
100
AcDbEntity
  8
0
  6
CONTINUOUS
 62
    7
370
   -1
100
AcDbCircle
 10
-1368.535950883
 20
-440.8540940967
 40
33.2162986375
100
AcDbArc
 50
217.2922059237
 51
222.3487315083
  0
ARC
  5
163
100
AcDbEntity
  8
0
  6
CONTINUOUS
 62
    7
370
   -1
100
AcDbCircle
 10
-581.4715438186
 20
-403.5042445866
 40
204.0083661417
100
AcDbArc
 50
313.8116719428
 51
224.0654108977
  0
CIRCLE
  5
164
100
AcDbEntity
  8
0
  6
CONTINUOUS
 62
    7
370
   -1
100
AcDbCircle
 10
-581.4715438186
 20
-403.5042445866
 40
6.9613497036
  0
ARC
  5
165
100
AcDbEntity
  8
0
  6
CONTINUOUS
 62
    7
370
   -1
100
AcDbCircle
 10
-487.5221596225
 20
-1844.8034415934
 40
1614.0115053344
100
AcDbArc
 50
109.9039898656
 51
110.4098273478
  0
ARC
  5
166
100
AcDbEntity
  8
0
  6
CONTINUOUS
 62
    7
370
   -1
100
AcDbCircle
 10
-503.4320026967
 20
-1739.7691785677
 40
1550.0635662729
100
AcDbArc
 50
103.4898075741
 51
116.9796151482
  0
ARC
  5
167
100
AcDbEntity
  8
0
  6
CONTINUOUS
 62
    7
370
   -1
100
AcDbCircle
 10
-492.896510422
 20
-1736.5215986748
 40
1550.0635662729
100
AcDbArc
 50
91.1212481272
 51
101.7674034168
  0
ARC
  5
168
100
AcDbEntity
  8
0
  6
CONTINUOUS
 62
    7
370
   -1
100
AcDbCircle
 10
-504.1106518845
 20
-1740.1146635188
 40
1550.0635662729
100
AcDbArc
 50
86.9059419411
 51
116.9796151482
  0
ARC
  5
169
100
AcDbEntity
  8
0
  6
CONTINUOUS
 62
    7
370
   -1
100
AcDbCircle
 10
-504.1106518845
 20
-1740.1146635188
 40
1510.061925853
100
AcDbArc
 50
86.9059419411
 51
88.84143656000001
  0
ARC
  5
16A
100
AcDbEntity
  8
0
  6
CONTINUOUS
 62
    7
370
   -1
100
AcDbCircle
 10
-504.1106518845
 20
-1740.1146635188
 40
1510.061925853
100
AcDbArc
 50
97.7835500905
 51
110.6645048806
  0
ARC
  5
16B
100
AcDbEntity
  8
0
  6
CONTINUOUS
 62
    7
370
   -1
100
AcDbCircle
 10
-449.4418592148
 20
-1904.2221555457
 40
1683.046455936
100
AcDbArc
 50
110.9194034116
 51
116.2232130361
  0
ARC
  5
16C
100
AcDbEntity
  8
0
  6
CONTINUOUS
 62
    7
370
   -1
100
AcDbCircle
 10
-687.9582139143
 20
4522.0248032551
 40
5065.4820390651
100
AcDbArc
 50
266.0488003843
 51
266.59399778
  0
ARC
  5
16D
100
AcDbEntity
  8
0
  6
CONTINUOUS
 62
    7
370
   -1
100
AcDbCircle
 10
-728.1471699579
 20
3931.0391468767
 40
4473.131847463
100
AcDbArc
 50
265.8689705076
 51
266.0407372365
  0
ARC
  5
16E
100
AcDbEntity
  8
0
  6
CONTINUOUS
 62
    7
370
   -1
100
AcDbCircle
 10
-162.4070753738
 20
1346.313855341
 40
1590.3109665635
100
AcDbArc
 50
266.9063240849
 51
271.8482785372
  0
ARC
  5
16F
100
AcDbEntity
  8
0
  6
CONTINUOUS
 62
    7
370
   -1
100
AcDbCircle
 10
-162.4071331074
 20
1346.3085433707
 40
1550.3046283592
100
AcDbArc
 50
266.9063254807
 51
271.8482771414
  0
ARC
  5
170
100
AcDbEntity
  8
0
  6
CONTINUOUS
 62
    7
370
   -1
100
AcDbCircle
 10
-260.9038437196
 20
16898.2306465351
 40
17449.87279584
100
AcDbArc
 50
268.4659297024
 51
269.4111531381
  0
ARC
  5
171
100
AcDbEntity
  8
0
  6
CONTINUOUS
 62
    7
370
   -1
100
AcDbCircle
 10
-676.5693914173
 20
55301.170185244
 40
55843.0649909806
100
AcDbArc
 50
271.2771606615
 51
271.4231950808
  0
ARC
  5
172
100
AcDbEntity
  8
0
  6
CONTINUOUS
 62
    7
370
   -1
100
AcDbCircle
 10
-521.3826737632
 20
48493.9257373576
 40
49054.033351033
100
AcDbArc
 50
271.2724141634
 51
271.4378252736
  0
ARC
  5
173
100
AcDbEntity
  8
0
  6
CONTINUOUS
 62
    7
370
   -1
100
AcDbCircle
 10
-110.9937807452
 20
21486.6279325005
 40
22044.433390752
100
AcDbArc
 50
271.3620595168
 51
271.5298390555
  0
ARC
  5
174
100
AcDbEntity
  8
0
  6
CONTINUOUS
 62
    7
370
   -1
100
AcDbCircle
 10
804.9128816503001
 20
-16802.9777041571
 40
16256.1249198001
100
AcDbArc
 50
91.3814336842
 51
91.7587090654
  0
ARC
  5
175
100
AcDbEntity
  8
0
  6
CONTINUOUS
 62
    7
370
   -1
100
AcDbCircle
 10
801.0644443137001
 20
-16663.4492384325
 40
16136.5450532946
100
AcDbArc
 50
91.37975061749999
 51
91.7591843204
  0
ARC
  5
176
100
AcDbEntity
  8
0
  6
CONTINUOUS
 62
    7
370
   -1
100
AcDbCircle
 10
215.9280975065
 20
9998.8725672624
 40
10552.0593695409
100
AcDbArc
 50
271.4206472039
 51
271.9114755381
  0
ARC
  5
177
100
AcDbEntity
  8
0
  6
CONTINUOUS
 62
    7
370
   -1
100
AcDbCircle
 10
62.1883542195
 20
-5822.1035158455
 40
5563.659429425
100
AcDbArc
 50
84.7827403636
 51
85.7233586534
  0
ARC
  5
178
100
AcDbEntity
  8
0
  6
CONTINUOUS
 62
    7
370
   -1
100
AcDbCircle
 10
472.4540325476
 20
-2823.4920628647
 40
2774.3935404851
100
AcDbArc
 50
86.5024440569
 51
87.38398899960001
  0
ARC
  5
179
100
AcDbEntity
  8
0
  6
CONTINUOUS
 62
    7
370
   -1
100
AcDbCircle
 10
1066.8615078083
 20
1730.4913935225
 40
2257.0485957698
100
AcDbArc
 50
276.18209458
 51
277.0899678654
  0
ARC
  5
17A
100
AcDbEntity
  8
0
  6
CONTINUOUS
 62
    7
370
   -1
100
AcDbCircle
 10
181.1286209754
 20
1789.9637453695
 40
2040.1084105926
100
AcDbArc
 50
264.9934894306
 51
266.3750206544
  0
ARC
  5
17B
100
AcDbEntity
  8
0
  6
CONTINUOUS
 62
    7
370
   -1
100
AcDbCircle
 10
181.1285589888
 20
1789.9629239933
 40
2000.105045223
100
AcDbArc
 50
264.9934893138
 51
266.3750207713
  0
ARC
  5
17C
100
AcDbEntity
  8
0
  6
CONTINUOUS
 62
    7
370
   -1
100
AcDbCircle
 10
1134.988976305
 20
1187.393797102
 40
1709.6950435701
100
AcDbArc
 50
277.0704617259
 51
278.5029123556
  0
ARC
  5
17D
100
AcDbEntity
  8
0
  6
CONTINUOUS
 62
    7
370
   -1
100
AcDbCircle
 10
437.8825870169
 20
-1708.6325609563
 40
1462.7635795532
100
AcDbArc
 50
79.4329631577
 51
80.07852201270001
  0
ARC
  5
17E
100
AcDbEntity
  8
0
  6
CONTINUOUS
 62
    7
370
   -1
100
AcDbCircle
 10
1188.9305015284
 20
821.6043264706
 40
1339.9506284073
100
AcDbArc
 50
278.5345741407
 51
279.2817424519
  0
ARC
  5
17F
100
AcDbEntity
  8
0
  6
CONTINUOUS
 62
    7
370
   -1
100
AcDbCircle
 10
558.0155275839001
 20
-409.5044906496
 40
203.0083251312
100
AcDbArc
 50
119.274663827
 51
121.9221653418
  0
ARC
  5
180
100
AcDbEntity
  8
0
  6
CONTINUOUS
 62
    7
370
   -1
100
AcDbCircle
 10
558.0155275839001
 20
-409.5044906496
 40
203.0083251312
100
AcDbArc
 50
43.1453944197
 51
49.5681870897
  0
ARC
  5
181
100
AcDbEntity
  8
0
  6
CONTINUOUS
 62
    7
370
   -1
100
AcDbCircle
 10
558.0155275839001
 20
-409.5044906496
 40
203.0083251312
100
AcDbArc
 50
318.2581271684
 51
319.3881588652
  0
ARC
  5
182
100
AcDbEntity
  8
0
  6
CONTINUOUS
 62
    7
370
   -1
100
AcDbCircle
 10
565.333762257
 20
-185.4950889798
 40
36.6847075344
100
AcDbArc
 50
359.9996637068
 51
5.6509064723
  0
ARC
  5
183
100
AcDbEntity
  8
0
  6
CONTINUOUS
 62
    7
370
   -1
100
AcDbCircle
 10
5.1631141907
 20
-534.5094963975
 40
20.0009407744
100
AcDbArc
 50
269.025358986
 51
269.9999970623
  0
ARC
  5
184
100
AcDbEntity
  8
0
  6
CONTINUOUS
 62
    7
370
   -1
100
AcDbCircle
 10
1342.9696531751
 20
-489.4517333787
 40
20.0001594758
100
AcDbArc
 50
277.1060806943
 51
65.6347566856
  0
ARC
  5
185
100
AcDbEntity
  8
0
  6
CONTINUOUS
 62
    7
370
   -1
100
AcDbCircle
 10
-1450.3932028461
 20
-9922.171685457601
 40
10388.6838855852
100
AcDbArc
 50
82.60088278409999
 51
83.34403061970001
  0
ARC
  5
186
100
AcDbEntity
  8
0
  6
CONTINUOUS
 62
    7
370
   -1
100
AcDbCircle
 10
-1038.2024088622
 20
-100.0332915795
 40
1000.0449795566
100
AcDbArc
 50
90.0000015694
 51
90.7908258575
  0
ARC
  5
187
100
AcDbEntity
  8
0
  6
CONTINUOUS
 62
    7
370
   -1
100
AcDbCircle
 10
-930.2192033836
 20
380.2707255971
 40
684.1444311854
100
AcDbArc
 50
359.97652013
 51
1.3586805923
  0
ARC
  5
188
100
AcDbEntity
  8
0
  6
CONTINUOUS
 62
    7
370
   -1
100
AcDbCircle
 10
-1222.1243265757
 20
384.2341183284
 40
62.9328808848
100
AcDbArc
 50
179.7397976839
 51
180.9538790235
  0
ARC
  5
189
100
AcDbEntity
  8
0
  6
CONTINUOUS
 62
    7
370
   -1
100
AcDbCircle
 10
-1302.2170544887
 20
382.6453613696
 40
17.1770923693
100
AcDbArc
 50
358.663748083
 51
1.8051143328
  0
ARC
  5
18A
100
AcDbEntity
  8
0
  6
CONTINUOUS
 62
    7
370
   -1
100
AcDbCircle
 10
-1410.8031024331
 20
10804.0106698096
 40
10067.9521256689
100
AcDbArc
 50
276.559902325
 51
277.4033742378
  0
ARC
  5
18B
100
AcDbEntity
  8
0
  6
CONTINUOUS
 62
    7
370
   -1
100
AcDbCircle
 10
-778.1607945841
 20
4060.5488702087
 40
3321.0274685779
100
AcDbArc
 50
274.476185779
 51
274.7567525807
  0
ARC
  5
18C
100
AcDbEntity
  8
0
  6
CONTINUOUS
 62
    7
370
   -1
100
AcDbCircle
 10
-1051.1207062878
 20
1351.5677236853
 40
1011.5790015908
100
AcDbArc
 50
269.25336748
 51
269.9999980657
  0
ARC
  5
18D
100
AcDbEntity
  8
0
  6
CONTINUOUS
 62
    7
370
   -1
100
AcDbCircle
 10
-1037.0043261238
 20
1300.0318199368
 40
1000.0447382806
100
AcDbArc
 50
269.2335891601
 51
269.9999985715
  0
ARC
  5
18E
100
AcDbEntity
  8
0
  6
CONTINUOUS
 62
    7
370
   -1
100
AcDbCircle
 10
-352.422563883
 20
1574.8701216088
 40
778.329114749
100
AcDbArc
 50
275.8107113284
 51
276.7736400942
  0
ARC
  5
18F
100
AcDbEntity
  8
0
  6
CONTINUOUS
 62
    7
370
   -1
100
AcDbCircle
 10
-938.5596997646001
 20
577.0545875387
 40
715.45205064
100
AcDbArc
 50
345.3819239105
 51
346.7435989746
  0
ARC
  5
190
100
AcDbEntity
  8
0
  6
CONTINUOUS
 62
    7
370
   -1
100
AcDbCircle
 10
-921.1486125206
 20
630.2061954936
 40
682.4961575907
100
AcDbArc
 50
13.0176498599
 51
14.5766889916
  0
ARC
  5
191
100
AcDbEntity
  8
0
  6
CONTINUOUS
 62
    7
370
   -1
100
AcDbCircle
 10
-933.9527674126
 20
819.5350603046001
 40
660.6031667335
100
AcDbArc
 50
358.3523017654
 51
0.0410545676
  0
ARC
  5
192
100
AcDbEntity
  8
0
  6
CONTINUOUS
 62
    7
370
   -1
100
AcDbCircle
 10
-900.174758125
 20
656.580058248
 40
642.8778671367
100
AcDbArc
 50
11.1657493485
 51
12.9400131961
  0
ARC
  5
193
100
AcDbEntity
  8
0
  6
CONTINUOUS
 62
    7
370
   -1
100
AcDbCircle
 10
-844.9816311415
 20
819.6742900128
 40
584.6287603894
100
AcDbArc
 50
358.2650271229
 51
0.032744718
  0
ARC
  5
194
100
AcDbEntity
  8
0
  6
CONTINUOUS
 62
    7
370
   -1
100
AcDbCircle
 10
-913.9515677627001
 20
740.0413844183
 40
483.3443556711
100
AcDbArc
 50
173.017087993
 51
174.3661297998
  0
ARC
  5
195
100
AcDbEntity
  8
0
  6
CONTINUOUS
 62
    7
370
   -1
100
AcDbCircle
 10
-917.3875719194
 20
459.614676386
 40
479.8944637607
100
AcDbArc
 50
185.6371276801
 51
187.3963373588
  0
ARC
  5
196
100
AcDbEntity
  8
0
  6
CONTINUOUS
 62
    7
370
   -1
100
AcDbCircle
 10
-997.7662804335
 20
881.1765020247
 40
474.3874812213
100
AcDbArc
 50
1.1518353465
 51
1.5092732092
  0
ARC
  5
197
100
AcDbEntity
  8
0
  6
CONTINUOUS
 62
    7
370
   -1
100
AcDbCircle
 10
-934.5363242797
 20
742.5936233067
 40
462.6020044007
100
AcDbArc
 50
171.9031164141
 51
173.0208965929
  0
ARC
  5
198
100
AcDbEntity
  8
0
  6
CONTINUOUS
 62
    7
370
   -1
100
AcDbCircle
 10
-935.7268190461
 20
457.3620410509
 40
461.4178410464
100
AcDbArc
 50
187.4121023589
 51
187.6062505404
  0
ARC
  5
199
100
AcDbEntity
  8
0
  6
CONTINUOUS
 62
    7
370
   -1
100
AcDbCircle
 10
-940.7300657062
 20
456.6855963392
 40
456.3690743826
100
AcDbArc
 50
187.6788924
 51
188.1038939782
  0
ARC
  5
19A
100
AcDbEntity
  8
0
  6
CONTINUOUS
 62
    7
370
   -1
100
AcDbCircle
 10
-351.6056256325
 20
1193.4919330582
 40
420.5200487677
100
AcDbArc
 50
281.2655080189
 51
283.1167612452
  0
ARC
  5
19B
100
AcDbEntity
  8
0
  6
CONTINUOUS
 62
    7
370
   -1
100
AcDbCircle
 10
-840.4821812181
 20
885.312651471
 40
317.0490784837
100
AcDbArc
 50
1.5107093883
 51
1.7943773264
  0
ARC
  5
19C
100
AcDbEntity
  8
0
  6
CONTINUOUS
 62
    7
370
   -1
100
AcDbCircle
 10
-1373.5452953007
 20
815.8122801774
 40
88.4858687503
100
AcDbArc
 50
359.7840988167
 51
0.6476208434
  0
ARC
  5
19D
100
AcDbEntity
  8
0
  6
CONTINUOUS
 62
    7
370
   -1
100
AcDbCircle
 10
-1121.6939442459
 20
819.8910643443
 40
84.9608504776
100
AcDbArc
 50
179.9208665142
 51
187.5028663231
  0
ARC
  5
19E
100
AcDbEntity
  8
0
  6
CONTINUOUS
 62
    7
370
   -1
100
AcDbCircle
 10
-521.7026677262
 20
784.4743818854
 40
34.930266187
100
AcDbArc
 50
272.1799010674
 51
274.4835141006
  0
ARC
  5
19F
100
AcDbEntity
  8
0
  6
CONTINUOUS
 62
    7
370
   -1
100
AcDbCircle
 10
-801.1774642654
 20
783.3329664146
 40
34.221089113
100
AcDbArc
 50
267.3175025143
 51
268.2403887017
  0
ARC
  5
1A0
100
AcDbEntity
  8
0
  6
CONTINUOUS
 62
    7
370
   -1
100
AcDbCircle
 10
603.1678321051
 20
-4172.7133817699
 40
5055.0249602437
100
AcDbArc
 50
90.93741316329999
 51
91.72870738029999
  0
ARC
  5
1A1
100
AcDbEntity
  8
0
  6
CONTINUOUS
 62
    7
370
   -1
100
AcDbCircle
 10
429.1229252678
 20
-2238.4885780673
 40
2846.4400400448
100
AcDbArc
 50
85.7168911596
 51
86.5768436505
  0
ARC
  5
1A2
100
AcDbEntity
  8
0
  6
CONTINUOUS
 62
    7
370
   -1
100
AcDbCircle
 10
441.3146514204
 20
-2040.6105325391
 40
2648.1871112265
100
AcDbArc
 50
86.5845181576
 51
87.23451611190001
  0
ARC
  5
1A3
100
AcDbEntity
  8
0
  6
CONTINUOUS
 62
    7
370
   -1
100
AcDbCircle
 10
444.1808431917
 20
-1770.4575490832
 40
2508.0037531358
100
AcDbArc
 50
86.392693827
 51
87.2036284445
  0
ARC
  5
1A4
100
AcDbEntity
  8
0
  6
CONTINUOUS
 62
    7
370
   -1
100
AcDbCircle
 10
718.1891284658
 20
348.6289306405
 40
28.5142069162
100
AcDbArc
 50
182.2903551005
 51
186.8456857962
  0
ARC
  5
1A5
100
AcDbEntity
  8
0
  6
CONTINUOUS
 62
    7
370
   -1
100
AcDbCircle
 10
716.9859851693
 20
348.60094698
 40
27.310913851
100
AcDbArc
 50
179.9487655605
 51
182.3325663162
  0
ARC
  5
1A6
100
AcDbEntity
  8
0
  6
CONTINUOUS
 62
    7
370
   -1
100
AcDbCircle
 10
693.0475636345
 20
8687.7858551669
 40
8371.312603734201
100
AcDbArc
 50
268.3933506347
 51
268.5397667677
  0
ARC
  5
1A7
100
AcDbEntity
  8
0
  6
CONTINUOUS
 62
    7
370
   -1
100
AcDbCircle
 10
504.433946246
 20
7117.3787072549
 40
6800.3826865257
100
AcDbArc
 50
271.5629360457
 51
271.6996369571
  0
ARC
  5
1A8
100
AcDbEntity
  8
0
  6
CONTINUOUS
 62
    7
370
   -1
100
AcDbCircle
 10
310.7026389904
 20
5971.0446000599
 40
5674.8259751217
100
AcDbArc
 50
272.5997627297
 51
273.802633783
  0
ARC
  5
1A9
100
AcDbEntity
  8
0
  6
CONTINUOUS
 62
    7
370
   -1
100
AcDbCircle
 10
583.8119703817
 20
4366.5872867084
 40
4048.734524664
100
AcDbArc
 50
268.5268096487
 51
269.8093863561
  0
ARC
  5
1AA
100
AcDbEntity
  8
0
  6
CONTINUOUS
 62
    7
370
   -1
100
AcDbCircle
 10
555.8626759629
 20
3792.5359493056
 40
3474.1408313373
100
AcDbArc
 50
268.2649325984
 51
268.3913789983
  0
ARC
  5
1AB
100
AcDbEntity
  8
0
  6
CONTINUOUS
 62
    7
370
   -1
100
AcDbCircle
 10
431.7365435756
 20
3398.2296576294
 40
2806.0975865987
100
AcDbArc
 50
273.4189669034
 51
274.2912897837
  0
ARC
  5
1AC
100
AcDbEntity
  8
0
  6
CONTINUOUS
 62
    7
370
   -1
100
AcDbCircle
 10
443.000063721
 20
3208.519411221
 40
2616.0532782871
100
AcDbArc
 50
272.76252335
 51
273.4205053522
  0
ARC
  5
1AD
100
AcDbEntity
  8
0
  6
CONTINUOUS
 62
    7
370
   -1
100
AcDbCircle
 10
444.2411234584
 20
2969.0235479519
 40
2506.5697313125
100
AcDbArc
 50
272.7964952948
 51
273.6088975309
  0
ARC
  5
1AE
100
AcDbEntity
  8
0
  6
CONTINUOUS
 62
    7
370
   -1
100
AcDbCircle
 10
477.0806166587
 20
2300.1554461201
 40
2000.1683671285
100
AcDbArc
 50
270.0000563102
 51
272.6083730065
  0
ARC
  5
1AF
100
AcDbEntity
  8
0
  6
CONTINUOUS
 62
    7
370
   -1
100
AcDbCircle
 10
559.2719344162
 20
599.8667230064
 40
121.077878636
100
AcDbArc
 50
72.3741121317
 51
107.5974003715
  0
ARC
  5
1B0
100
AcDbEntity
  8
0
  6
CONTINUOUS
 62
    7
370
   -1
100
AcDbCircle
 10
559.2123044304
 20
599.9961875860999
 40
120.9413007275
100
AcDbArc
 50
107.5890151358
 51
287.6719885346
  0
ARC
  5
1B1
100
AcDbEntity
  8
0
  6
CONTINUOUS
 62
    7
370
   -1
100
AcDbCircle
 10
1338.6596905427
 20
758.4019364043
 40
12.5612264541
100
AcDbArc
 50
0.0455834974
 51
6.2985294342
  0
ARC
  5
1B2
100
AcDbEntity
  8
0
  6
CONTINUOUS
 62
    7
370
   -1
100
AcDbCircle
 10
2672.0918853547
 20
-119.1403251417
 40
964.0877143612
100
AcDbArc
 50
188.8669277314
 51
189.0432710742
  0
ARC
  5
1B3
100
AcDbEntity
  8
0
  6
CONTINUOUS
 62
    7
370
   -1
100
AcDbCircle
 10
2696.1113324441
 20
-185.4296606887
 40
563.5387776521
100
AcDbArc
 50
179.639325261
 51
180.006674078
  0
ARC
  5
1B4
100
AcDbEntity
  8
0
  6
CONTINUOUS
 62
    7
370
   -1
100
AcDbCircle
 10
1304.2784999971
 20
-185.4318108284
 40
563.1451019736
100
AcDbArc
 50
359.9935400169
 51
0.3610822659
  0
ARC
  5
1B5
100
AcDbEntity
  8
0
  6
CONTINUOUS
 62
    7
370
   -1
100
AcDbCircle
 10
1919.4962112233
 20
-385.026873895
 40
141.0133578675
100
AcDbArc
 50
303.4894801398
 51
304.8123400702
  0
ARC
  5
1B6
100
AcDbEntity
  8
0
  6
CONTINUOUS
 62
    7
370
   -1
100
AcDbCircle
 10
2077.9484879878
 20
-388.8206984287
 40
136.4401173395
100
AcDbArc
 50
235.5028023352
 51
237.2004970594
  0
ARC
  5
1B7
100
AcDbEntity
  8
0
  6
CONTINUOUS
 62
    7
370
   -1
100
AcDbCircle
 10
1923.0130322142
 20
-390.3031981056
 40
134.6724479288
100
AcDbArc
 50
302.7968698309
 51
303.4802935321
  0
ARC
  5
1B8
100
AcDbEntity
  8
0
  6
CONTINUOUS
 62
    7
370
   -1
100
AcDbCircle
 10
1997.0749507259
 20
-180.9479469988
 40
129.6636089871
100
AcDbArc
 50
150.040918839
 51
180.413112261
  0
ARC
  5
1B9
100
AcDbEntity
  8
0
  6
CONTINUOUS
 62
    7
370
   -1
100
AcDbCircle
 10
2002.9748878552
 20
-180.9291122663
 40
129.6097484608
100
AcDbArc
 50
359.5786661641
 51
29.9634884812
  0
ARC
  5
1BA
100
AcDbEntity
  8
0
  6
CONTINUOUS
 62
    7
370
   -1
100
AcDbCircle
 10
2230.8847203461
 20
-250.765624961
 40
51.2447250569
100
AcDbArc
 50
2.7891258118
 51
7.965442182500001
  0
ARC
  5
1BB
100
AcDbEntity
  8
0
  6
CONTINUOUS
 62
    7
370
   -1
100
AcDbCircle
 10
2157.7564597828
 20
-463.1088260087
 40
46.194650503
100
AcDbArc
 50
270.8130148932
 51
274.1044844864
  0
ARC
  5
1BC
100
AcDbEntity
  8
0
  6
CONTINUOUS
 62
    7
370
   -1
100
AcDbCircle
 10
2263.815780228
 20
-509.6550382256
 40
41.9314127022
100
AcDbArc
 50
281.2106719103
 51
292.7198710586
  0
ARC
  5
1BD
100
AcDbEntity
  8
0
  6
CONTINUOUS
 62
    7
370
   -1
100
AcDbCircle
 10
2263.9441818177
 20
-510.4952927228
 40
41.0822447063
100
AcDbArc
 50
269.9783516568
 51
281.2628437299
  0
ARC
  5
1BE
100
AcDbEntity
  8
0
  6
CONTINUOUS
 62
    7
370
   -1
100
AcDbCircle
 10
2220.0568048605
 20
-241.3511378096
 40
40.3312533733
100
AcDbArc
 50
90.06875521960001
 51
99.2900284361
  0
ARC
  5
1BF
100
AcDbEntity
  8
0
  6
CONTINUOUS
 62
    7
370
   -1
100
AcDbCircle
 10
2259.9974291915
 20
-240.3832790989
 40
40.1207295256
100
AcDbArc
 50
82.4737209258
 51
89.981979928
  0
ARC
  5
1C0
100
AcDbEntity
  8
0
  6
CONTINUOUS
 62
    7
370
   -1
100
AcDbCircle
 10
2220.0109228815
 20
-240.3426038495
 40
40.0800523709
100
AcDbArc
 50
90.00359635780001
 51
104.5993009517
  0
ARC
  5
1C1
100
AcDbEntity
  8
0
  6
CONTINUOUS
 62
    7
370
   -1
100
AcDbCircle
 10
1739.9887220861
 20
-230.0527376658
 40
40.0016404199
100
AcDbArc
 50
90
 51
157.4812416876
  0
ARC
  5
1C2
100
AcDbEntity
  8
0
  6
CONTINUOUS
 62
    7
370
   -1
100
AcDbCircle
 10
2260.0100475454
 20
-514.508796752
 40
40.0016404199
100
AcDbArc
 50
270
 51
360
  0
ARC
  5
1C3
100
AcDbEntity
  8
0
  6
CONTINUOUS
 62
    7
370
   -1
100
AcDbCircle
 10
1779.990362506
 20
-230.0527376658
 40
40.0016404199
100
AcDbArc
 50
45.4500133448
 51
89.9999999993
  0
ARC
  5
1C4
100
AcDbEntity
  8
0
  6
CONTINUOUS
 62
    7
370
   -1
100
AcDbCircle
 10
2260.0063528144
 20
-226.7509671512
 40
39.9962873318
100
AcDbArc
 50
28.2584395537
 51
89.9947071605
  0
ARC
  5
1C5
100
AcDbEntity
  8
0
  6
CONTINUOUS
 62
    7
370
   -1
100
AcDbCircle
 10
1739.9568932
 20
-232.2881070195
 40
39.973256615
100
AcDbArc
 50
89.9543827614
 51
179.9511016511
  0
ARC
  5
1C6
100
AcDbEntity
  8
0
  6
CONTINUOUS
 62
    7
370
   -1
100
AcDbCircle
 10
2260.0495125452
 20
-240.2374798196
 40
39.9671080017
100
AcDbArc
 50
7.478324074200001
 51
82.5203635001
  0
ARC
  5
1C7
100
AcDbEntity
  8
0
  6
CONTINUOUS
 62
    7
370
   -1
100
AcDbCircle
 10
2260.0554801608
 20
-246.112567315
 40
39.9629045803
100
AcDbArc
 50
0.0711703274
 51
90.0647409984
  0
ARC
  5
1C8
100
AcDbEntity
  8
0
  6
CONTINUOUS
 62
    7
370
   -1
100
AcDbCircle
 10
1739.9432557347
 20
-246.1125201232
 40
39.9628633435
100
AcDbArc
 50
89.934827305
 51
179.9288976436
  0
ARC
  5
1C9
100
AcDbEntity
  8
0
  6
CONTINUOUS
 62
    7
370
   -1
100
AcDbCircle
 10
2260.1072785481
 20
-240.9519770623
 40
39.9038328206
100
AcDbArc
 50
0.011953781
 51
89.9932780195
  0
ARC
  5
1CA
100
AcDbEntity
  8
0
  6
CONTINUOUS
 62
    7
370
   -1
100
AcDbCircle
 10
1739.8617988541
 20
-273.9716054283
 40
39.8764280366
100
AcDbArc
 50
121.2201728521
 51
179.9480244712
  0
ARC
  5
1CB
100
AcDbEntity
  8
0
  6
CONTINUOUS
 62
    7
370
   -1
100
AcDbCircle
 10
2260.1781381016
 20
-240.2106883082
 40
39.8335501547
100
AcDbArc
 50
0.0069248848
 51
7.4641950559
  0
ARC
  5
1CC
100
AcDbEntity
  8
0
  6
CONTINUOUS
 62
    7
370
   -1
100
AcDbCircle
 10
1748.6223640937
 20
-288.2633656593
 40
33.2844263126
100
AcDbArc
 50
91.9506592534
 51
95.8494929149
  0
ARC
  5
1CD
100
AcDbEntity
  8
0
  6
CONTINUOUS
 62
    7
370
   -1
100
AcDbCircle
 10
1748.6008008244
 20
-287.0160789297
 40
32.0371352045
100
AcDbArc
 50
89.9560624442
 51
91.988046901
  0
ARC
  5
1CE
100
AcDbEntity
  8
0
  6
CONTINUOUS
 62
    7
370
   -1
100
AcDbCircle
 10
2158.4075403029
 20
-443.7887487815
 40
27.4438112577
100
AcDbArc
 50
270.0091643553
 51
272.8665747556
  0
ARC
  5
1CF
100
AcDbEntity
  8
0
  6
CONTINUOUS
 62
    7
370
   -1
100
AcDbCircle
 10
1719.9879018761
 20
-534.5096169619
 40
20.00082021
100
AcDbArc
 50
180
 51
270.0000000442
  0
SPLINE
  5
1D0
100
AcDbEntity
  8
0
  6
CONTINUOUS
 62
    7
370
   -1
100
AcDbSpline
210
0
220
0
230
0
 70
    8
 71
    3
 72
    8
 73
    4
 74
    0
 42
1e-07
 43
1e-07
 40
0
 40
0
 40
0
 40
0
 40
1
 40
1
 40
1
 40
1
 10
4.8229006951
 20
-554.5075434681
 30
0
 10
-98.56234487410001
 20
-552.7487136654
 30
0
 10
-261.4496895859
 20
-552.7297542855
 30
0
 10
-440.2385528418
 20
-550.7206014082
 30
0
  0
SPLINE
  5
1D1
100
AcDbEntity
  8
0
  6
CONTINUOUS
 62
    7
370
   -1
100
AcDbSpline
210
0
220
0
230
0
 70
    8
 71
    3
 72
    8
 73
    4
 74
    0
 42
1e-07
 43
1e-07
 40
0
 40
0
 40
0
 40
0
 40
1
 40
1
 40
1
 40
1
 10
-440.0438932787
 20
-550.7227881936
 30
0
 10
-433.7706896424
 20
-550.7932376565
 30
0
 10
-427.5170845819
 20
-550.8612383170999
 30
0
 10
-421.2849618471
 20
-550.9269513315
 30
0
  0
SPLINE
  5
1D2
100
AcDbEntity
  8
0
  6
CONTINUOUS
 62
    7
370
   -1
100
AcDbSpline
210
0
220
0
230
0
 70
    8
 71
    3
 72
    8
 73
    4
 74
    0
 42
1e-07
 43
1e-07
 40
0
 40
0
 40
0
 40
0
 40
1
 40
1
 40
1
 40
1
 10
-30.7869797112
 20
-553.9928070353
 30
0
 10
-29.2732712447
 20
-554.0114526166
 30
0
 10
-27.7689305669
 20
-554.0303266709
 30
0
 10
-26.2740551733
 20
-554.0494375391
 30
0
  0
LINE
  5
1D3
100
AcDbEntity
  8
0
  6
CONTINUOUS
 62
    7
370
   -1
100
AcDbLine
 10
-1390.7506177291
 20
-458.4445243752
 11
-1392.1538023399
 21
-459.2887161259
  0
LINE
  5
1D4
100
AcDbEntity
  8
0
  6
CONTINUOUS
 62
    7
370
   -1
100
AcDbLine
 10
-1392.1538023399
 20
-459.2887161259
 11
-1394.2592400569
 21
-460.5562290815
  0
LINE
  5
1D5
100
AcDbEntity
  8
0
  6
CONTINUOUS
 62
    7
370
   -1
100
AcDbLine
 10
-1394.2592400569
 20
-460.5562290815
 11
-1394.4180285406
 21
-460.6518621579
  0
LINE
  5
1D6
100
AcDbEntity
  8
0
  6
CONTINUOUS
 62
    7
370
   -1
100
AcDbLine
 10
-1394.4180285406
 20
-460.6518621579
 11
-1394.5791090732
 21
-460.7488844505
  0
LINE
  5
1D7
100
AcDbEntity
  8
0
  6
CONTINUOUS
 62
    7
370
   -1
100
AcDbLine
 10
-1394.5791090732
 20
-460.7488844505
 11
-1394.9612455579
 21
-460.9790940888
  0
SPLINE
  5
1D8
100
AcDbEntity
  8
0
  6
CONTINUOUS
 62
    7
370
   -1
100
AcDbSpline
210
0
220
0
230
0
 70
    8
 71
    3
 72
   10
 73
    6
 74
    0
 42
1e-07
 43
1e-07
 40
0
 40
0
 40
0
 40
0
 40
0.3333333333333333
 40
0.6666666666666666
 40
1
 40
1
 40
1
 40
1
 10
-1390.7506177291
 20
-458.4445243752
 30
0
 10
-1390.592574445
 20
-458.3494763306
 30
0
 10
-1390.2832436061
 20
-458.162768914
 30
0
 10
-1389.8237070106
 20
-457.886796785
 30
0
 10
-1389.5223555757
 20
-457.7056369868
 30
0
 10
-1389.3725961473
 20
-457.6156306364
 30
0
  0
LINE
  5
1D9
100
AcDbEntity
  8
0
  6
CONTINUOUS
 62
    7
370
   -1
100
AcDbLine
 10
438.2619179231
 20
-111.3395953402
 11
439.0716346845
 21
-111.3627914232
  0
SPLINE
  5
1DA
100
AcDbEntity
  8
0
  6
CONTINUOUS
 62
    7
370
   -1
100
AcDbSpline
210
0
220
0
230
0
 70
    8
 71
    3
 72
   35
 73
   31
 74
    0
 42
1e-07
 43
1e-07
 40
0
 40
0
 40
0
 40
0
 40
0.03571428571428571
 40
0.07142857142857142
 40
0.1071428571428571
 40
0.1428571428571428
 40
0.1785714285714285
 40
0.2142857142857143
 40
0.25
 40
0.2857142857142857
 40
0.3214285714285714
 40
0.3571428571428571
 40
0.3928571428571428
 40
0.4285714285714285
 40
0.4642857142857142
 40
0.5
 40
0.5357142857142857
 40
0.5714285714285714
 40
0.6071428571428571
 40
0.6428571428571428
 40
0.6785714285714285
 40
0.7142857142857142
 40
0.75
 40
0.7857142857142857
 40
0.8214285714285714
 40
0.8571428571428571
 40
0.8928571428571428
 40
0.9285714285714285
 40
0.9642857142857142
 40
1
 40
1
 40
1
 40
1
 10
643.9707029863
 20
-54.4050251751
 30
0
 10
678.5781225606
 20
-56.5457299536
 30
0
 10
747.7150286177
 20
-62.2425174028
 30
0
 10
850.9287127565
 20
-75.4361533917
 30
0
 10
936.3000873835
 20
-90.7071179248
 30
0
 10
1004.0012989188
 20
-105.7582640246
 30
0
 10
1054.4211781264
 20
-118.5605252368
 30
0
 10
1104.3982333594
 20
-132.9958587683
 30
0
 10
1145.5928409252
 20
-146.5070110419
 30
0
 10
1178.200234974
 20
-158.3050669467
 30
0
 10
1202.4585004742
 20
-167.683997498
 30
0
 10
1226.4879456047
 20
-177.6353000981
 30
0
 10
1250.2491439285
 20
-188.2123288606
 30
0
 10
1273.6897027598
 20
-199.4841908949
 30
0
 10
1296.7340090642
 20
-211.5471295459
 30
0
 10
1315.5202974197
 20
-222.3667585222
 30
0
 10
1330.2121939008
 20
-231.5746323505
 30
0
 10
1341.0317535809
 20
-238.7907867278
 30
0
 10
1351.609287353
 20
-246.358242355
 30
0
 10
1361.8865083635
 20
-254.3307561492
 30
0
 10
1371.7791280835
 20
-262.7774084247
 30
0
 10
1379.6006473092
 20
-270.2900913608
 30
0
 10
1385.4962181595
 20
-276.6488577752
 30
0
 10
1389.6981953593
 20
-281.6145747312
 30
0
 10
1393.6254329646
 20
-286.8017944071
 30
0
 10
1397.2046657322
 20
-292.2372402868
 30
0
 10
1400.3343233483
 20
-297.9466728095
 30
0
 10
1402.8683851837
 20
-303.9501164308
 30
0
 10
1404.6040928722
 20
-310.2365886505
 30
0
 10
1405.0502634762
 20
-314.5771645654
 30
0
 10
1405.0502634762
 20
-316.7433604671
 30
0
  0
LINE
  5
1DB
100
AcDbEntity
  8
0
  6
CONTINUOUS
 62
    7
370
   -1
100
AcDbLine
 10
-1389.3734931324
 20
-457.6159963046
 11
-1388.036793715
 21
-456.8129003915
  0
SPLINE
  5
1DC
100
AcDbEntity
  8
0
  6
CONTINUOUS
 62
    7
370
   -1
100
AcDbSpline
210
0
220
0
230
0
 70
    8
 71
    3
 72
    8
 73
    4
 74
    0
 42
1e-07
 43
1e-07
 40
0
 40
0
 40
0
 40
0
 40
1
 40
1
 40
1
 40
1
 10
-1388.036793715
 20
-456.8129003915
 30
0
 10
-1352.741220994
 20
-435.6143391891
 30
0
 10
-1319.5327581788
 20
-416.248009419
 30
0
 10
-1285.0545371961
 20
-398.4607258797
 30
0
  0
SPLINE
  5
1DD
100
AcDbEntity
  8
0
  6
CONTINUOUS
 62
    7
370
   -1
100
AcDbSpline
210
0
220
0
230
0
 70
    8
 71
    3
 72
    8
 73
    4
 74
    0
 42
1e-07
 43
1e-07
 40
0
 40
0
 40
0
 40
0
 40
1
 40
1
 40
1
 40
1
 10
-1375.6298046538
 20
-475.9314121015
 30
0
 10
-1326.0784536794
 20
-502.3182684579
 30
0
 10
-1204.2812065221
 20
-519.3534229582
 30
0
 10
-1050.3809182246
 20
-530.471128385
 30
0
  0
SPLINE
  5
1DE
100
AcDbEntity
  8
0
  6
CONTINUOUS
 62
    7
370
   -1
100
AcDbSpline
210
0
220
0
230
0
 70
    8
 71
    3
 72
    8
 73
    4
 74
    0
 42
1e-07
 43
1e-07
 40
0
 40
0
 40
0
 40
0
 40
1
 40
1
 40
1
 40
1
 10
1309.9200687125
 20
-513.4317111399
 30
0
 10
1146.7540037077
 20
-531.1545599779
 30
0
 10
925.1729585192001
 20
-539.1589135874
 30
0
 10
712.2030060583
 20
-544.5934384067
 30
0
  0
LINE
  5
1DF
100
AcDbEntity
  8
0
  6
CONTINUOUS
 62
    7
370
   -1
100
AcDbLine
 10
712.2030060583
 20
-544.5934384067
 11
710.2266542019
 21
-544.6438033435001
  0
LINE
  5
1E0
100
AcDbEntity
  8
0
  6
CONTINUOUS
 62
    7
370
   -1
100
AcDbLine
 10
710.2266542019
 20
-544.6438033435001
 11
709.490558877
 21
-544.6625276557
  0
SPLINE
  5
1E1
100
AcDbEntity
  8
0
  6
CONTINUOUS
 62
    7
370
   -1
100
AcDbSpline
210
0
220
0
230
0
 70
    8
 71
    3
 72
    8
 73
    4
 74
    0
 42
1e-07
 43
1e-07
 40
0
 40
0
 40
0
 40
0
 40
1
 40
1
 40
1
 40
1
 10
327.1077023851
 20
-553.8709536313
 30
0
 10
331.7222570506
 20
-553.7352241151
 30
0
 10
336.3735864184
 20
-553.6009529993
 30
0
 10
341.0604323078
 20
-553.4680060927
 30
0
  0
LINE
  5
1E2
100
AcDbEntity
  8
0
  6
CONTINUOUS
 62
    7
370
   -1
100
AcDbLine
 10
341.0604323078
 20
-553.4680060927
 11
342.8065765244
 21
-553.4185823811
  0
SPLINE
  5
1E3
100
AcDbEntity
  8
0
  6
CONTINUOUS
 62
    7
370
   -1
100
AcDbSpline
210
0
220
0
230
0
 70
    8
 71
    3
 72
    8
 73
    4
 74
    0
 42
1e-07
 43
1e-07
 40
0
 40
0
 40
0
 40
0
 40
1
 40
1
 40
1
 40
1
 10
342.8065765244
 20
-553.4185823811
 30
0
 10
347.5997746915
 20
-553.2832066267
 30
0
 10
352.4298178645
 20
-553.1491933294
 30
0
 10
357.2953678008
 20
-553.0163997591
 30
0
  0
SPLINE
  5
1E4
100
AcDbEntity
  8
0
  6
CONTINUOUS
 62
    7
370
   -1
100
AcDbSpline
210
0
220
0
230
0
 70
    8
 71
    3
 72
    8
 73
    4
 74
    0
 42
1e-07
 43
1e-07
 40
0
 40
0
 40
0
 40
0
 40
1
 40
1
 40
1
 40
1
 10
357.2953678008
 20
-553.0163997591
 30
0
 10
359.0788926846
 20
-552.967722705
 30
0
 10
360.8671885261
 20
-552.9192095428
 30
0
 10
362.6601894115
 20
-552.8708532422
 30
0
  0
SPLINE
  5
1E5
100
AcDbEntity
  8
0
  6
CONTINUOUS
 62
    7
370
   -1
100
AcDbSpline
210
0
220
0
230
0
 70
    8
 71
    3
 72
    8
 73
    4
 74
    0
 42
1e-07
 43
1e-07
 40
0
 40
0
 40
0
 40
0
 40
1
 40
1
 40
1
 40
1
 10
362.6601894115
 20
-552.8708532422
 30
0
 10
366.3872561916
 20
-552.7703361911
 30
0
 10
370.1346529546
 20
-552.6704969224
 30
0
 10
373.9017876803
 20
-552.5712722941
 30
0
  0
SPLINE
  5
1E6
100
AcDbEntity
  8
0
  6
CONTINUOUS
 62
    7
370
   -1
100
AcDbSpline
210
0
220
0
230
0
 70
    8
 71
    3
 72
    8
 73
    4
 74
    0
 42
1e-07
 43
1e-07
 40
0
 40
0
 40
0
 40
0
 40
1
 40
1
 40
1
 40
1
 10
373.9017876803
 20
-552.5712722941
 30
0
 10
375.822620388
 20
-552.5206784276
 30
0
 10
377.7485847702
 20
-552.4702443615
 30
0
 10
379.6796023446
 20
-552.4199617253
 30
0
  0
SPLINE
  5
1E7
100
AcDbEntity
  8
0
  6
CONTINUOUS
 62
    7
370
   -1
100
AcDbSpline
210
0
220
0
230
0
 70
    8
 71
    3
 72
    8
 73
    4
 74
    0
 42
1e-07
 43
1e-07
 40
0
 40
0
 40
0
 40
0
 40
1
 40
1
 40
1
 40
1
 10
379.6796023446
 20
-552.4199617253
 30
0
 10
383.5358840479
 20
-552.3195462695001
 30
0
 10
387.4123183412
 20
-552.2197347298001
 30
0
 10
391.3082801678
 20
-552.1204604408
 30
0
  0
SPLINE
  5
1E8
100
AcDbEntity
  8
0
  6
CONTINUOUS
 62
    7
370
   -1
100
AcDbSpline
210
0
220
0
230
0
 70
    8
 71
    3
 72
    8
 73
    4
 74
    0
 42
1e-07
 43
1e-07
 40
0
 40
0
 40
0
 40
0
 40
1
 40
1
 40
1
 40
1
 10
391.3082801678
 20
-552.1204604408
 30
0
 10
392.9890144394
 20
-552.0776330962
 30
0
 10
394.673382972
 20
-552.0349057391001
 30
0
 10
396.3613355808
 20
-551.992273017
 30
0
  0
SPLINE
  5
1E9
100
AcDbEntity
  8
0
  6
CONTINUOUS
 62
    7
370
   -1
100
AcDbSpline
210
0
220
0
230
0
 70
    8
 71
    3
 72
    8
 73
    4
 74
    0
 42
1e-07
 43
1e-07
 40
0
 40
0
 40
0
 40
0
 40
1
 40
1
 40
1
 40
1
 10
396.3613355808
 20
-551.992273017
 30
0
 10
401.8720973225
 20
-551.8530873714
 30
0
 10
407.4210605277
 20
-551.7149104088001
 30
0
 10
413.0064788655
 20
-551.5775558745
 30
0
  0
SPLINE
  5
1EA
100
AcDbEntity
  8
0
  6
CONTINUOUS
 62
    7
370
   -1
100
AcDbSpline
210
0
220
0
230
0
 70
    8
 71
    3
 72
    8
 73
    4
 74
    0
 42
1e-07
 43
1e-07
 40
0
 40
0
 40
0
 40
0
 40
1
 40
1
 40
1
 40
1
 10
-988.9033006864
 20
-534.5096169619
 30
0
 10
-907.1118946534
 20
-539.3895160375
 30
0
 10
-818.4282080281
 20
-542.8670419512
 30
0
 10
-728.0609974318
 20
-545.3878079237001
 30
0
  0
SPLINE
  5
1EB
100
AcDbEntity
  8
0
  6
CONTINUOUS
 62
    7
370
   -1
100
AcDbSpline
210
0
220
0
230
0
 70
    8
 71
    3
 72
    8
 73
    4
 74
    0
 42
1e-07
 43
1e-07
 40
0
 40
0
 40
0
 40
0
 40
1
 40
1
 40
1
 40
1
 10
-112.7749583132
 20
-203.2008533403
 30
0
 10
-111.7809836549
 20
-203.1686848475
 30
0
 10
-110.7869206523
 20
-203.1368232717
 30
0
 10
-109.7927559877
 20
-203.1052814809
 30
0
  0
SPLINE
  5
1EC
100
AcDbEntity
  8
0
  6
CONTINUOUS
 62
    7
370
   -1
100
AcDbSpline
210
0
220
0
230
0
 70
    8
 71
    3
 72
    8
 73
    4
 74
    0
 42
1e-07
 43
1e-07
 40
0
 40
0
 40
0
 40
0
 40
1
 40
1
 40
1
 40
1
 10
-109.7927559877
 20
-203.1052814809
 30
0
 10
-108.5832361312
 20
-203.0669071314
 30
0
 10
-107.3735657985
 20
-203.0290061156
 30
0
 10
-106.1637210074
 20
-202.991601606
 30
0
  0
SPLINE
  5
1ED
100
AcDbEntity
  8
0
  6
CONTINUOUS
 62
    7
370
   -1
100
AcDbSpline
210
0
220
0
230
0
 70
    8
 71
    3
 72
    9
 73
    5
 74
    0
 42
1e-07
 43
1e-07
 40
0
 40
0
 40
0
 40
0
 40
0.5
 40
1
 40
1
 40
1
 40
1
 10
2.4499273916
 20
-202.214753248
 30
0
 10
2.8470729608
 20
-202.2382866196
 30
0
 10
4.1233168206
 20
-202.3176282218
 30
0
 10
5.4893286688
 20
-202.4165222848
 30
0
 10
6.5814278005
 20
-202.5121937866
 30
0
  0
SPLINE
  5
1EE
100
AcDbEntity
  8
0
  6
CONTINUOUS
 62
    7
370
   -1
100
AcDbSpline
210
0
220
0
230
0
 70
    8
 71
    3
 72
   15
 73
   11
 74
    0
 42
1e-07
 43
1e-07
 40
0
 40
0
 40
0
 40
0
 40
0.125
 40
0.25
 40
0.375
 40
0.5
 40
0.625
 40
0.75
 40
0.875
 40
1
 40
1
 40
1
 40
1
 10
458.3364204932
 20
-237.8992159961
 30
0
 10
458.0170580445
 20
-237.8699500025
 30
0
 10
457.3790343027
 20
-237.8039302377
 30
0
 10
456.4225984074
 20
-237.7001094321
 30
0
 10
455.4643769079
 20
-237.6129919728
 30
0
 10
454.5043864207
 20
-237.5492562405
 30
0
 10
453.5444110794
 20
-237.48536656
 30
0
 10
452.5862576893
 20
-237.3976450797
 30
0
 10
451.6299508941
 20
-237.292873496
 30
0
 10
450.9919631095
 20
-237.2266314871
 30
0
 10
450.6726003356
 20
-237.1974862728
 30
0
  0
SPLINE
  5
1EF
100
AcDbEntity
  8
0
  6
CONTINUOUS
 62
    7
370
   -1
100
AcDbSpline
210
0
220
0
230
0
 70
    8
 71
    3
 72
   15
 73
   11
 74
    0
 42
1e-07
 43
1e-07
 40
0
 40
0
 40
0
 40
0
 40
0.125
 40
0.25
 40
0.375
 40
0.5
 40
0.625
 40
0.75
 40
0.875
 40
1
 40
1
 40
1
 40
1
 10
6.5814278005
 20
-202.5121937866
 30
0
 10
5.4982966211
 20
-202.4173079072
 30
0
 10
3.6449066594
 20
-202.2829088321
 30
0
 10
0.2713566167
 20
-202.0865849465
 30
0
 10
-5.1773047371
 20
-201.8555932119
 30
0
 10
-15.4536906498
 20
-201.6052155342
 30
0
 10
-29.586152423
 20
-201.5251303584
 30
0
 10
-51.8850866635
 20
-201.6763922597
 30
0
 10
-79.46254786279999
 20
-202.205564633
 30
0
 10
-101.4341030498
 20
-202.834797959
 30
0
 10
-112.4052906957
 20
-203.1889085843
 30
0
  0
SPLINE
  5
1F0
100
AcDbEntity
  8
0
  6
CONTINUOUS
 62
    7
370
   -1
100
AcDbSpline
210
0
220
0
230
0
 70
    8
 71
    3
 72
    9
 73
    5
 74
    0
 42
1e-07
 43
1e-07
 40
0
 40
0
 40
0
 40
0
 40
0.5
 40
1
 40
1
 40
1
 40
1
 10
479.7204094792
 20
-239.8684985195
 30
0
 10
476.1559174901
 20
-239.5435266881
 30
0
 10
469.0278115828
 20
-238.8853227232
 30
0
 10
461.8994513315
 20
-238.2298875851
 30
0
 10
458.3356592322
 20
-237.8986363024
 30
0
  0
SPLINE
  5
1F1
100
AcDbEntity
  8
0
  6
CONTINUOUS
 62
    7
370
   -1
100
AcDbSpline
210
0
220
0
230
0
 70
    8
 71
    3
 72
   10
 73
    6
 74
    0
 42
1e-07
 43
1e-07
 40
0
 40
0
 40
0
 40
0
 40
0.3333333333333333
 40
0.6666666666666666
 40
1
 40
1
 40
1
 40
1
 10
570.3425207295001
 20
-249.8598840932
 30
0
 10
555.2733360458
 20
-247.8951416263
 30
0
 10
532.6362531708
 20
-245.204324643
 30
0
 10
502.4110538178
 20
-242.030854919
 30
0
 10
487.2868096802
 20
-240.5692379756
 30
0
 10
479.7222886221
 20
-239.8690650108
 30
0
  0
SPLINE
  5
1F2
100
AcDbEntity
  8
0
  6
CONTINUOUS
 62
    7
370
   -1
100
AcDbSpline
210
0
220
0
230
0
 70
    8
 71
    3
 72
   10
 73
    6
 74
    0
 42
1e-07
 43
1e-07
 40
0
 40
0
 40
0
 40
0
 40
0.3333333333333333
 40
0.6666666666666666
 40
1
 40
1
 40
1
 40
1
 10
689.9143643149999
 20
-267.7448925729
 30
0
 10
679.9919062636
 20
-266.0026536504
 30
0
 10
660.1170465859
 20
-262.6795257138
 30
0
 10
620.2766277263
 20
-256.5821725694
 30
0
 10
590.325537253
 20
-252.4770277299
 30
0
 10
570.3425207295001
 20
-249.8598840932
 30
0
  0
SPLINE
  5
1F3
100
AcDbEntity
  8
0
  6
CONTINUOUS
 62
    7
370
   -1
100
AcDbSpline
210
0
220
0
230
0
 70
    8
 71
    3
 72
    8
 73
    4
 74
    0
 42
1e-07
 43
1e-07
 40
0
 40
0
 40
0
 40
0
 40
1
 40
1
 40
1
 40
1
 10
689.6750822374
 20
-254.9789531452
 30
0
 10
912.3055814332999
 20
-284.6149345619
 30
0
 10
1053.096446189
 20
-336.2036762916
 30
0
 10
1351.2209140577
 20
-471.2325601576
 30
0
  0
SPLINE
  5
1F4
100
AcDbEntity
  8
0
  6
CONTINUOUS
 62
    7
370
   -1
100
AcDbSpline
210
0
220
0
230
0
 70
    8
 71
    3
 72
    8
 73
    4
 74
    0
 42
1e-07
 43
1e-07
 40
0
 40
0
 40
0
 40
0
 40
1
 40
1
 40
1
 40
1
 10
54.6706143806
 20
-206.1413278491
 30
0
 10
218.8609906285
 20
-216.5431543208
 30
0
 10
349.4555848466
 20
-224.2505515328
 30
0
 10
458.7451112565
 20
-232.4232536007
 30
0
  0
SPLINE
  5
1F5
100
AcDbEntity
  8
0
  6
CONTINUOUS
 62
    7
370
   -1
100
AcDbSpline
210
0
220
0
230
0
 70
    8
 71
    3
 72
   22
 73
   18
 74
    0
 42
1e-07
 43
1e-07
 40
0
 40
0
 40
0
 40
0
 40
0.06666666666666667
 40
0.1333333333333333
 40
0.2
 40
0.2666666666666667
 40
0.3333333333333333
 40
0.4
 40
0.4666666666666667
 40
0.5333333333333333
 40
0.6
 40
0.6666666666666666
 40
0.7333333333333333
 40
0.8
 40
0.8666666666666667
 40
0.9333333333333333
 40
1
 40
1
 40
1
 40
1
 10
595.9333132271
 20
-116.1970888106
 30
0
 10
586.6584248381
 20
-115.8910267056
 30
0
 10
567.947107443
 20
-115.2809117091
 30
0
 10
540.1541332332
 20
-114.3961584576
 30
0
 10
513.4070876302
 20
-113.5653653989
 30
0
 10
492.4453698686
 20
-112.9294077268
 30
0
 10
477.2918452814
 20
-112.4771437985
 30
0
 10
467.5166984587
 20
-112.1882524467
 30
0
 10
459.0045706443
 20
-111.9388478036
 30
0
 10
451.8726562051
 20
-111.7314679409
 30
0
 10
446.8397326705
 20
-111.5859825458
 30
0
 10
443.5761628851
 20
-111.4920783639
 30
0
 10
441.7219041184
 20
-111.4386404905
 30
0
 10
440.2725978428
 20
-111.3974681133
 30
0
 10
439.2337886741
 20
-111.3668038322
 30
0
 10
438.6091777135
 20
-111.3505123295
 30
0
 10
438.3314351755
 20
-111.3409046436
 30
0
 10
438.2619179873
 20
-111.3395953413
 30
0
  0
SPLINE
  5
1F6
100
AcDbEntity
  8
0
  6
CONTINUOUS
 62
    7
370
   -1
100
AcDbSpline
210
0
220
0
230
0
 70
    8
 71
    3
 72
   13
 73
    9
 74
    0
 42
1e-07
 43
1e-07
 40
0
 40
0
 40
0
 40
0
 40
0.1666666666666667
 40
0.3333333333333333
 40
0.5
 40
0.6666666666666666
 40
0.8333333333333333
 40
1
 40
1
 40
1
 40
1
 10
601.8401933448999
 20
-181.8828519837
 30
0
 10
601.5572268147999
 20
-179.0241483723
 30
0
 10
600.9914532768
 20
-173.3174629296
 30
0
 10
600.1579930432
 20
-164.7850318262
 30
0
 10
599.3476788495
 20
-156.3205117771
 30
0
 10
598.3086567348
 20
-145.2788040358
 30
0
 10
597.1113608451
 20
-131.9212040836
 30
0
 10
596.2891912026
 20
-121.3444982408
 30
0
 10
595.9333487613
 20
-116.1978835781
 30
0
  0
SPLINE
  5
1F7
100
AcDbEntity
  8
0
  6
CONTINUOUS
 62
    7
370
   -1
100
AcDbSpline
210
0
220
0
230
0
 70
    8
 71
    3
 72
   17
 73
   13
 74
    0
 42
1e-07
 43
1e-07
 40
0
 40
0
 40
0
 40
0
 40
0.1
 40
0.2
 40
0.3
 40
0.4
 40
0.5
 40
0.6000000000000001
 40
0.7000000000000001
 40
0.8
 40
0.9
 40
1
 40
1
 40
1
 40
1
 10
557.0154865734
 20
-227.3510500588
 30
0
 10
557.0499721704
 20
-227.246569735
 30
0
 10
557.1461959014
 20
-227.0460905417
 30
0
 10
557.3857144566
 20
-226.6726114917
 30
0
 10
557.7465867654
 20
-226.2445103559
 30
0
 10
558.2388820226
 20
-225.7854355118
 30
0
 10
558.9550756233
 20
-225.2346885859
 30
0
 10
559.9314607715
 20
-224.6512509061
 30
0
 10
561.1799254054
 20
-224.0940623111
 30
0
 10
562.480526321
 20
-223.6600672029
 30
0
 10
564.257787261
 20
-223.2258355901
 30
0
 10
565.622007759
 20
-223.0442186782
 30
0
 10
566.5333273464
 20
-222.9723636439
 30
0
  0
SPLINE
  5
1F8
100
AcDbEntity
  8
0
  6
CONTINUOUS
 62
    7
370
   -1
100
AcDbSpline
210
0
220
0
230
0
 70
    8
 71
    3
 72
    9
 73
    5
 74
    0
 42
1e-07
 43
1e-07
 40
0
 40
0
 40
0
 40
0
 40
0.5
 40
1
 40
1
 40
1
 40
1
 10
710.1486979251
 20
-541.7411933457
 30
0
 10
710.4779113459
 20
-541.7256946828001
 30
0
 10
711.1356556629
 20
-541.6808667195
 30
0
 10
711.7947046147
 20
-541.6637505769
 30
0
 10
712.1239085347
 20
-541.6482034793
 30
0
  0
SPLINE
  5
1F9
100
AcDbEntity
  8
0
  6
CONTINUOUS
 62
    7
370
   -1
100
AcDbSpline
210
0
220
0
230
0
 70
    8
 71
    3
 72
   11
 73
    7
 74
    0
 42
1e-07
 43
1e-07
 40
0
 40
0
 40
0
 40
0
 40
0.25
 40
0.5
 40
0.75
 40
1
 40
1
 40
1
 40
1
 10
567.8956535915
 20
-547.31172971
 30
0
 10
579.7082251399
 20
-546.9058027157
 30
0
 10
603.3304675294
 20
-546.0603385243001
 30
0
 10
638.7591076662
 20
-544.7495304461
 30
0
 10
674.1780085841
 20
-543.3446867267
 30
0
 10
697.7847604093
 20
-542.3189196089
 30
0
 10
709.5852786711
 20
-541.7675486077
 30
0
  0
LINE
  5
1FA
100
AcDbEntity
  8
0
  6
CONTINUOUS
 62
    7
370
   -1
100
AcDbLine
 10
709.5852786711
 20
-541.7675486077
 11
710.1486979251
 21
-541.7411933457
  0
LINE
  5
1FB
100
AcDbEntity
  8
0
  6
CONTINUOUS
 62
    7
370
   -1
100
AcDbLine
 10
458.7451095815
 20
-232.4232534754
 11
457.4860962223
 21
-232.3291948949
  0
SPLINE
  5
1FC
100
AcDbEntity
  8
0
  6
CONTINUOUS
 62
    7
370
   -1
100
AcDbSpline
210
0
220
0
230
0
 70
    8
 71
    3
 72
    8
 73
    4
 74
    0
 42
1e-07
 43
1e-07
 40
0
 40
0
 40
0
 40
0
 40
1
 40
1
 40
1
 40
1
 10
457.4860962223
 20
-232.3291948949
 30
0
 10
455.3533198925
 20
-232.1700124532
 30
0
 10
453.2124362513
 20
-232.0110020813
 30
0
 10
451.0633543645
 20
-231.8521404017
 30
0
  0
LINE
  5
1FD
100
AcDbEntity
  8
0
  6
CONTINUOUS
 62
    7
370
   -1
100
AcDbLine
 10
329.6371838467
 20
-223.4853816054
 11
326.0463502886
 21
-223.2513575833
  0
SPLINE
  5
1FE
100
AcDbEntity
  8
0
  6
CONTINUOUS
 62
    7
370
   -1
100
AcDbSpline
210
0
220
0
230
0
 70
    8
 71
    3
 72
    8
 73
    4
 74
    0
 42
1e-07
 43
1e-07
 40
0
 40
0
 40
0
 40
0
 40
1
 40
1
 40
1
 40
1
 10
326.0463502886
 20
-223.2513575833
 30
0
 10
305.8553926262
 20
-221.936925027
 30
0
 10
285.0094652708
 20
-220.6042840369
 30
0
 10
263.4591923913
 20
-219.2407409243
 30
0
  0
LINE
  5
1FF
100
AcDbEntity
  8
0
  6
CONTINUOUS
 62
    7
370
   -1
100
AcDbLine
 10
263.4591923913
 20
-219.2407409243
 11
260.3685408709
 21
-219.0452795244
  0
SPLINE
  5
200
100
AcDbEntity
  8
0
  6
CONTINUOUS
 62
    7
370
   -1
100
AcDbSpline
210
0
220
0
230
0
 70
    8
 71
    3
 72
    8
 73
    4
 74
    0
 42
1e-07
 43
1e-07
 40
0
 40
0
 40
0
 40
0
 40
1
 40
1
 40
1
 40
1
 10
260.3685408709
 20
-219.0452795244
 30
0
 10
239.2649105102
 20
-217.7112487329
 30
0
 10
217.4877842727
 20
-216.3471904317
 30
0
 10
194.9912252139
 20
-214.9412950119
 30
0
  0
SPLINE
  5
201
100
AcDbEntity
  8
0
  6
CONTINUOUS
 62
    7
370
   -1
100
AcDbSpline
210
0
220
0
230
0
 70
    8
 71
    3
 72
    8
 73
    4
 74
    0
 42
1e-07
 43
1e-07
 40
0
 40
0
 40
0
 40
0
 40
1
 40
1
 40
1
 40
1
 10
124.3286165833
 20
-210.5256383805
 30
0
 10
105.0528086938
 20
-209.3187302674
 30
0
 10
85.2829708161
 20
-208.0771197644
 30
0
 10
64.995309408
 20
-206.7946899556
 30
0
  0
SPLINE
  5
202
100
AcDbEntity
  8
0
  6
CONTINUOUS
 62
    7
370
   -1
100
AcDbSpline
210
0
220
0
230
0
 70
    8
 71
    3
 72
    8
 73
    4
 74
    0
 42
1e-07
 43
1e-07
 40
0
 40
0
 40
0
 40
0
 40
1
 40
1
 40
1
 40
1
 10
458.7463087304
 20
-232.4233431482
 30
0
 10
547.6041698479
 20
-239.0681716627
 30
0
 10
622.3782953112
 20
-246.0205986785
 30
0
 10
689.6745686097
 20
-254.9788847725
 30
0
  0
SPLINE
  5
203
100
AcDbEntity
  8
0
  6
CONTINUOUS
 62
    7
370
   -1
100
AcDbSpline
210
0
220
0
230
0
 70
    8
 71
    3
 72
   16
 73
   12
 74
    0
 42
1e-07
 43
1e-07
 40
0
 40
0
 40
0
 40
0
 40
0.1111111111111111
 40
0.2222222222222222
 40
0.3333333333333333
 40
0.4444444444444444
 40
0.5555555555555556
 40
0.6666666666666666
 40
0.7777777777777777
 40
0.8888888888888888
 40
1
 40
1
 40
1
 40
1
 10
602.0184697908001
 20
-185.4953042979
 30
0
 10
602.0184697908001
 20
-187.8557803218
 30
0
 10
601.6685911227
 20
-191.4119464473
 30
0
 10
600.53810201
 20
-196.0073384521
 30
0
 10
598.9683891183
 20
-200.4737717999
 30
0
 10
596.2167984287
 20
-205.7412785054
 30
0
 10
591.7857399811001
 20
-211.3166259121
 30
0
 10
586.4028155648
 20
-215.976272835
 30
0
 10
580.2556174962
 20
-219.5700407752
 30
0
 10
573.5651176757
 20
-221.9901528242
 30
0
 10
568.8836099284
 20
-222.7868625089
 30
0
 10
566.5333273464
 20
-222.9723636439
 30
0
  0
LINE
  5
204
100
AcDbEntity
  8
0
  6
CONTINUOUS
 62
    7
370
   -1
100
AcDbLine
 10
567.9107596461
 20
-548.0117021459999
 11
561.287226506
 21
-548.160872523
  0
SPLINE
  5
205
100
AcDbEntity
  8
0
  6
CONTINUOUS
 62
    7
370
   -1
100
AcDbSpline
210
0
220
0
230
0
 70
    8
 71
    3
 72
    8
 73
    4
 74
    0
 42
1e-07
 43
1e-07
 40
0
 40
0
 40
0
 40
0
 40
1
 40
1
 40
1
 40
1
 10
561.287226506
 20
-548.160872523
 30
0
 10
532.8365487953999
 20
-548.8011265367001
 30
0
 10
504.8616572104
 20
-549.4249232819
 30
0
 10
477.541781029
 20
-550.0513784591
 30
0
  0
LINE
  5
206
100
AcDbEntity
  8
0
  6
CONTINUOUS
 62
    7
370
   -1
100
AcDbLine
 10
477.541781029
 20
-550.0513784591
 11
476.2759922971
 21
-550.0804162221
  0
SPLINE
  5
207
100
AcDbEntity
  8
0
  6
CONTINUOUS
 62
    7
370
   -1
100
AcDbSpline
210
0
220
0
230
0
 70
    8
 71
    3
 72
    8
 73
    4
 74
    0
 42
1e-07
 43
1e-07
 40
0
 40
0
 40
0
 40
0
 40
1
 40
1
 40
1
 40
1
 10
476.2759922971
 20
-550.0804162221
 30
0
 10
464.4301625918
 20
-550.3522850471001
 30
0
 10
452.7081846544
 20
-550.6247100255
 30
0
 10
441.1247017139
 20
-550.8992529311
 30
0
  0
SPLINE
  5
208
100
AcDbEntity
  8
0
  6
CONTINUOUS
 62
    7
370
   -1
100
AcDbSpline
210
0
220
0
230
0
 70
    8
 71
    3
 72
   14
 73
   10
 74
    0
 42
1e-07
 43
1e-07
 40
0
 40
0
 40
0
 40
0
 40
0.1428571428571428
 40
0.2857142857142857
 40
0.4285714285714285
 40
0.5714285714285714
 40
0.7142857142857142
 40
0.8571428571428571
 40
1
 40
1
 40
1
 40
1
 10
-422.1427334726
 20
-530.9159032955999
 30
0
 10
-386.533723671
 20
-531.2925409736
 30
0
 10
-333.1190358862
 20
-531.7554202449001
 30
0
 10
-261.8987976853
 20
-532.2538137156
 30
0
 10
-208.4837156024
 20
-532.5872562021
 30
0
 10
-155.0693731049
 20
-532.9188687601001
 30
0
 10
-101.6561189425
 20
-533.2884912547
 30
0
 10
-48.2445788713
 20
-533.7526653977
 30
0
 10
-12.6384791269
 20
-534.2067693855
 30
0
 10
5.1631131591
 20
-534.5096169618
 30
0
  0
SPLINE
  5
209
100
AcDbEntity
  8
0
  6
CONTINUOUS
 62
    7
370
   -1
100
AcDbSpline
210
0
220
0
230
0
 70
    8
 71
    3
 72
   21
 73
   17
 74
    0
 42
1e-07
 43
1e-07
 40
0
 40
0
 40
0
 40
0
 40
0.07142857142857142
 40
0.1428571428571428
 40
0.2142857142857143
 40
0.2857142857142857
 40
0.3571428571428571
 40
0.4285714285714285
 40
0.5
 40
0.5714285714285714
 40
0.6428571428571428
 40
0.7142857142857142
 40
0.7857142857142857
 40
0.8571428571428571
 40
0.9285714285714285
 40
1
 40
1
 40
1
 40
1
 10
3.0905211861
 20
-242.3612189603
 30
0
 10
1.9052387449
 20
-242.257384292
 30
0
 10
-0.4700419536
 20
-242.1039181818
 30
0
 10
-4.0360001427
 20
-241.9385163048
 30
0
 10
-7.6040876007
 20
-241.8172420668
 30
0
 10
-11.1731932854
 20
-241.7272471424
 30
0
 10
-14.7428074248
 20
-241.6611876175
 30
0
 10
-19.5025446021
 20
-241.5971340525
 30
0
 10
-25.4526451108
 20
-241.558718342
 30
0
 10
-32.5929131699
 20
-241.5606885522
 30
0
 10
-42.1131493616
 20
-241.6115573073
 30
0
 10
-54.0126866305
 20
-241.7506271879
 30
0
 10
-68.2904815207
 20
-242.0077397445
 30
0
 10
-82.5666046712
 20
-242.3377190399
 30
0
 10
-96.841485823
 20
-242.7240827026
 30
0
 10
-106.3571728984
 20
-243.0161682056
 30
0
 10
-111.1148530694
 20
-243.1697290739
 30
0
  0
SPLINE
  5
20A
100
AcDbEntity
  8
0
  6
CONTINUOUS
 62
    7
370
   -1
100
AcDbSpline
210
0
220
0
230
0
 70
    8
 71
    3
 72
   13
 73
    9
 74
    0
 42
1e-07
 43
1e-07
 40
0
 40
0
 40
0
 40
0
 40
0.1666666666666667
 40
0.3333333333333333
 40
0.5
 40
0.6666666666666666
 40
0.8333333333333333
 40
1
 40
1
 40
1
 40
1
 10
455.7621061263
 20
-272.3135145259
 30
0
 10
422.1496905588
 20
-269.7999684685
 30
0
 10
371.7099374657
 20
-266.3119656607
 30
0
 10
304.4403472763
 20
-261.9243053571
 30
0
 10
253.9827459905
 20
-258.7163871536
 30
0
 10
203.5225199012
 20
-255.5523228685
 30
0
 10
136.241117163
 20
-251.3504151109
 30
0
 10
85.78035074349999
 20
-248.1940324503
 30
0
 10
52.1414914998
 20
-246.0629357043
 30
0
  0
SPLINE
  5
20B
100
AcDbEntity
  8
0
  6
CONTINUOUS
 62
    7
370
   -1
100
AcDbSpline
210
0
220
0
230
0
 70
    8
 71
    3
 72
   11
 73
    7
 74
    0
 42
1e-07
 43
1e-07
 40
0
 40
0
 40
0
 40
0
 40
0.25
 40
0.5
 40
0.75
 40
1
 40
1
 40
1
 40
1
 10
568.1062258237999
 20
-281.4940409032
 30
0
 10
568.3879312929
 20
-278.4765729288
 30
0
 10
568.9063314441
 20
-272.5989624347
 30
0
 10
569.5596349050001
 20
-264.1659885229
 30
0
 10
570.0473697193
 20
-256.6406014625
 30
0
 10
570.2736660465
 20
-251.9743452999
 30
0
 10
570.3448730785
 20
-249.8619865614
 30
0
  0
SPLINE
  5
20C
100
AcDbEntity
  8
0
  6
CONTINUOUS
 62
    7
370
   -1
100
AcDbSpline
210
0
220
0
230
0
 70
    8
 71
    3
 72
    9
 73
    5
 74
    0
 42
1e-07
 43
1e-07
 40
0
 40
0
 40
0
 40
0
 40
0.5
 40
1
 40
1
 40
1
 40
1
 10
477.0825824172
 20
-530.055830151
 30
0
 10
484.6702812494
 20
-529.8836191973
 30
0
 10
515.0113724583
 20
-529.2001139551001
 30
0
 10
545.3527563082999
 20
-528.5297140892
 30
0
 10
568.1062262263
 20
-528.0219124384
 30
0
  0
SPLINE
  5
20D
100
AcDbEntity
  8
0
  6
CONTINUOUS
 62
    7
370
   -1
100
AcDbSpline
210
0
220
0
230
0
 70
    8
 71
    3
 72
   15
 73
   11
 74
    0
 42
1e-07
 43
1e-07
 40
0
 40
0
 40
0
 40
0
 40
0.125
 40
0.25
 40
0.375
 40
0.5
 40
0.625
 40
0.75
 40
0.875
 40
1
 40
1
 40
1
 40
1
 10
567.8699025425
 20
-547.3143356853
 30
0
 10
567.8936953919
 20
-547.1505750407
 30
0
 10
567.9365309917
 20
-546.7798136533
 30
0
 10
568.0136720229
 20
-545.8763724828
 30
0
 10
568.0899383588001
 20
-544.4593609288
 30
0
 10
568.1563471157
 20
-542.4445316397
 30
0
 10
568.1988645369
 20
-540.048768165
 30
0
 10
568.2153853411
 20
-537.3327930891001
 30
0
 10
568.202321115
 20
-533.287235312
 30
0
 10
568.1545056457001
 20
-530.1556459875
 30
0
 10
568.1062262241001
 20
-528.0219124385
 30
0
  0
SPLINE
  5
20E
100
AcDbEntity
  8
0
  6
CONTINUOUS
 62
    7
370
   -1
100
AcDbSpline
210
0
220
0
230
0
 70
    8
 71
    3
 72
   35
 73
   31
 74
    0
 42
1e-07
 43
1e-07
 40
0
 40
0
 40
0
 40
0
 40
0.03571428571428571
 40
0.07142857142857142
 40
0.1071428571428571
 40
0.1428571428571428
 40
0.1785714285714285
 40
0.2142857142857143
 40
0.25
 40
0.2857142857142857
 40
0.3214285714285714
 40
0.3571428571428571
 40
0.3928571428571428
 40
0.4285714285714285
 40
0.4642857142857142
 40
0.5
 40
0.5357142857142857
 40
0.5714285714285714
 40
0.6071428571428571
 40
0.6428571428571428
 40
0.6785714285714285
 40
0.7142857142857142
 40
0.75
 40
0.7857142857142857
 40
0.8214285714285714
 40
0.8571428571428571
 40
0.8928571428571428
 40
0.9285714285714285
 40
0.9642857142857142
 40
1
 40
1
 40
1
 40
1
 10
305.692929016
 20
-534.5096169619
 30
0
 10
305.7526685163
 20
-535.1584879767
 30
0
 10
305.8185393143
 20
-536.4574470586
 30
0
 10
305.8212226695
 20
-538.3936589188
 30
0
 10
305.7877117071
 20
-540.2947881310999
 30
0
 10
305.7874500786
 20
-542.139952409
 30
0
 10
305.8184723066
 20
-543.9091287911
 30
0
 10
305.8608812453
 20
-545.5862445439
 30
0
 10
305.8962411167
 20
-547.1567706667
 30
0
 10
305.9192421528
 20
-548.6062029815
 30
0
 10
305.9358898375
 20
-549.9203634222
 30
0
 10
305.9504254589
 20
-551.0861092627
 30
0
 10
305.9635878602
 20
-551.9593692925
 30
0
 10
305.9735935886
 20
-552.5754018925001
 30
0
 10
305.9802849943
 20
-552.9729904929
 30
0
 10
305.9863319978
 20
-553.3260985066
 30
0
 10
305.9915540927
 20
-553.6337609431
 30
0
 10
305.995839268
 20
-553.8952296639
 30
0
 10
305.9988354387
 20
-554.0839877367
 30
0
 10
306.0008050315
 20
-554.2115376901
 30
0
 10
306.0019907041
 20
-554.2894954158
 30
0
 10
306.002971342
 20
-554.3555924812
 30
0
 10
306.0037811173
 20
-554.4097524908
 30
0
 10
306.004288319
 20
-554.447468587
 30
0
 10
306.0046854516
 20
-554.4715625351
 30
0
 10
306.0047627938
 20
-554.4852869221
 30
0
 10
306.0052051481
 20
-554.4955701741
 30
0
 10
306.0046422085
 20
-554.50384024
 30
0
 10
306.0058763726
 20
-554.5071613573
 30
0
 10
306.0046898334
 20
-554.5104529716
 30
0
 10
306.0051954662
 20
-554.5104371719
 30
0
  0
SPLINE
  5
20F
100
AcDbEntity
  8
0
  6
CONTINUOUS
 62
    7
370
   -1
100
AcDbSpline
210
0
220
0
230
0
 70
    8
 71
    3
 72
   30
 73
   26
 74
    0
 42
1e-07
 43
1e-07
 40
0
 40
0
 40
0
 40
0
 40
0.04347826086956522
 40
0.08695652173913043
 40
0.1304347826086956
 40
0.1739130434782609
 40
0.2173913043478261
 40
0.2608695652173913
 40
0.3043478260869565
 40
0.3478260869565217
 40
0.3913043478260869
 40
0.4347826086956522
 40
0.4782608695652174
 40
0.5217391304347826
 40
0.5652173913043478
 40
0.6086956521739131
 40
0.6521739130434783
 40
0.6956521739130435
 40
0.7391304347826086
 40
0.7826086956521738
 40
0.8260869565217391
 40
0.8695652173913043
 40
0.9130434782608695
 40
0.9565217391304348
 40
1
 40
1
 40
1
 40
1
 10
-1050.3809182254
 20
-332.1160458336
 30
0
 10
-1051.3175959068
 20
-329.6989818836
 30
0
 10
-1052.7066789065
 20
-326.1018373535
 30
0
 10
-1054.5284066636
 20
-321.3572319888
 30
0
 10
-1055.8384279712
 20
-317.931659256
 30
0
 10
-1057.0914270763
 20
-314.6412652542
 30
0
 10
-1058.2752968716
 20
-311.517867057
 30
0
 10
-1059.3782497795
 20
-308.5924611923
 30
0
 10
-1060.3896281478
 20
-305.8930856337
 30
0
 10
-1061.3002868748
 20
-303.4445673597
 30
0
 10
-1062.1020045911
 20
-301.2692350753
 30
0
 10
-1062.6967074424
 20
-299.6365154476
 30
0
 10
-1063.1113397384
 20
-298.4830526779
 30
0
 10
-1063.3760560349
 20
-297.7387617668
 30
0
 10
-1063.6082639525
 20
-297.0772040887
 30
0
 10
-1063.8076225674
 20
-296.4994657048
 30
0
 10
-1063.9738567236
 20
-296.0065455997
 30
0
 10
-1064.10665656
 20
-295.5995336763
 30
0
 10
-1064.1952188229
 20
-295.3139959704
 30
0
 10
-1064.248386221
 20
-295.1292795358
 30
0
 10
-1064.2764285337
 20
-295.0236756109
 30
0
 10
-1064.2961745469
 20
-294.9414038046
 30
0
 10
-1064.3071790087
 20
-294.8787183003
 30
0
 10
-1064.3112379052
 20
-294.84317461
 30
0
 10
-1064.3077727269
 20
-294.8201449795
 30
0
 10
-1064.3024172248
 20
-294.8180692062
 30
0
  0
LINE
  5
210
100
AcDbEntity
  8
0
  6
CONTINUOUS
 62
    7
370
   -1
100
AcDbLine
 10
-523.2284225762
 20
-186.7548365106
 11
-523.2764136978
 21
-189.5358279073
  0
SPLINE
  5
211
100
AcDbEntity
  8
0
  6
CONTINUOUS
 62
    7
370
   -1
100
AcDbSpline
210
0
220
0
230
0
 70
    8
 71
    3
 72
   24
 73
   20
 74
    0
 42
1e-07
 43
1e-07
 40
0
 40
0
 40
0
 40
0
 40
0.05882352941176471
 40
0.1176470588235294
 40
0.1764705882352941
 40
0.2352941176470588
 40
0.2941176470588235
 40
0.3529411764705882
 40
0.4117647058823529
 40
0.4705882352941176
 40
0.5294117647058824
 40
0.5882352941176471
 40
0.6470588235294118
 40
0.7058823529411764
 40
0.7647058823529411
 40
0.8235294117647058
 40
0.8823529411764706
 40
0.9411764705882353
 40
1
 40
1
 40
1
 40
1
 10
-1193.1284779982
 20
-394.3958125906
 30
0
 10
-1194.260664065
 20
-392.1499979512
 30
0
 10
-1196.4385883933
 20
-387.7408537608
 30
0
 10
-1199.4798862927
 20
-381.2999469353
 30
0
 10
-1201.776294526
 20
-376.1804216308
 30
0
 10
-1203.3957140725
 20
-372.3788344291
 30
0
 10
-1204.4418122465
 20
-369.8196905605
 30
0
 10
-1205.350206819
 20
-367.4839527376
 30
0
 10
-1206.1136847228
 20
-365.3919258807
 30
0
 10
-1206.725328756
 20
-363.5635380413
 30
0
 10
-1207.1235004327
 20
-362.2086458209
 30
0
 10
-1207.3549325124
 20
-361.26882103
 30
0
 10
-1207.4777654888
 20
-360.6788082227
 30
0
 10
-1207.55988322
 20
-360.1647924405
 30
0
 10
-1207.6013553382
 20
-359.7275194778
 30
0
 10
-1207.602735079
 20
-359.3670351056
 30
0
 10
-1207.5633904439
 20
-359.0827322444
 30
0
 10
-1207.4826091795
 20
-358.8697512912
 30
0
 10
-1207.3850164956
 20
-358.773926797
 30
0
 10
-1207.3333628788
 20
-358.747631109
 30
0
  0
SPLINE
  5
212
100
AcDbEntity
  8
0
  6
CONTINUOUS
 62
    7
370
   -1
100
AcDbSpline
210
0
220
0
230
0
 70
    8
 71
    3
 72
    9
 73
    5
 74
    0
 42
1e-07
 43
1e-07
 40
0
 40
0
 40
0
 40
0
 40
0.5
 40
1
 40
1
 40
1
 40
1
 10
710.1509951273
 20
-541.7400504457
 30
0
 10
710.1649359597
 20
-541.586832317
 30
0
 10
710.2221758907
 20
-540.9155082131
 30
0
 10
710.266089908
 20
-540.2430944695
 30
0
 10
710.2951574192
 20
-539.7240094382
 30
0
  0
SPLINE
  5
213
100
AcDbEntity
  8
0
  6
CONTINUOUS
 62
    7
370
   -1
100
AcDbSpline
210
0
220
0
230
0
 70
    8
 71
    3
 72
   10
 73
    6
 74
    0
 42
1e-07
 43
1e-07
 40
0
 40
0
 40
0
 40
0
 40
0.3333333333333333
 40
0.6666666666666666
 40
1
 40
1
 40
1
 40
1
 10
710.2951574192
 20
-539.7240094382
 30
0
 10
710.3534173184
 20
-538.6836093378
 30
0
 10
710.4379652821
 20
-536.4205800321
 30
0
 10
710.5133616536
 20
-531.4012306698
 30
0
 10
710.4692372876
 20
-527.4227855514
 30
0
 10
710.3984377867999
 20
-524.6681678666
 30
0
  0
SPLINE
  5
214
100
AcDbEntity
  8
0
  6
CONTINUOUS
 62
    7
370
   -1
100
AcDbSpline
210
0
220
0
230
0
 70
    8
 71
    3
 72
   25
 73
   21
 74
    0
 42
1e-07
 43
1e-07
 40
0
 40
0
 40
0
 40
0
 40
0.05555555555555555
 40
0.1111111111111111
 40
0.1666666666666667
 40
0.2222222222222222
 40
0.2777777777777778
 40
0.3333333333333333
 40
0.3888888888888888
 40
0.4444444444444444
 40
0.5
 40
0.5555555555555556
 40
0.611111111111111
 40
0.6666666666666666
 40
0.7222222222222222
 40
0.7777777777777777
 40
0.8333333333333333
 40
0.8888888888888888
 40
0.9444444444444444
 40
1
 40
1
 40
1
 40
1
 10
1312.0925999494
 20
-493.5483271654
 30
0
 10
1287.2100403519
 20
-482.4980927584
 30
0
 10
1237.3011660368
 20
-460.5312843943
 30
0
 10
1174.5586264819
 20
-433.7763106839
 30
0
 10
1123.9686408941
 20
-413.0394393872
 30
0
 10
1085.7671837296
 20
-397.9216146363
 30
0
 10
1047.2971698851
 20
-383.355754327
 30
0
 10
1008.5237428563
 20
-369.4690628631
 30
0
 10
969.4159237304
 20
-356.4049489958
 30
0
 10
929.9573992069
 20
-344.298691242
 30
0
 10
890.1492481998
 20
-333.261758516
 30
0
 10
856.7070082388
 20
-325.0128875418
 30
0
 10
829.8083379556
 20
-318.9865575033
 30
0
 10
809.5643471909
 20
-314.7502282496
 30
0
 10
789.260768895
 20
-310.7855536328
 30
0
 10
768.9036953226
 20
-307.0813860611
 30
0
 10
748.4994731976
 20
-303.6250493754
 30
0
 10
728.0529465889
 20
-300.4083603221
 30
0
 10
707.5715105664
 20
-297.4040804373
 30
0
 10
693.8974649131
 20
-295.5333807771
 30
0
 10
687.0557779988
 20
-294.6308162651
 30
0
  0
SPLINE
  5
215
100
AcDbEntity
  8
0
  6
CONTINUOUS
 62
    7
370
   -1
100
AcDbSpline
210
0
220
0
230
0
 70
    8
 71
    3
 72
    9
 73
    5
 74
    0
 42
1e-07
 43
1e-07
 40
0
 40
0
 40
0
 40
0
 40
0.5
 40
1
 40
1
 40
1
 40
1
 10
687.0557779988
 20
-294.6308162651
 30
0
 10
677.1706396523
 20
-293.3254074757
 30
0
 10
637.5883232269
 20
-288.3533310359
 30
0
 10
597.8991476229
 20
-284.2649660262
 30
0
 10
568.1062262296
 20
-281.4940365516
 30
0
  0
SPLINE
  5
216
100
AcDbEntity
  8
0
  6
CONTINUOUS
 62
    7
370
   -1
100
AcDbSpline
210
0
220
0
230
0
 70
    8
 71
    3
 72
   20
 73
   16
 74
    0
 42
1e-07
 43
1e-07
 40
0
 40
0
 40
0
 40
0
 40
0.07692307692307693
 40
0.1538461538461539
 40
0.2307692307692308
 40
0.3076923076923077
 40
0.3846153846153846
 40
0.4615384615384616
 40
0.5384615384615385
 40
0.6153846153846154
 40
0.6923076923076923
 40
0.7692307692307693
 40
0.8461538461538463
 40
0.9230769230769231
 40
1
 40
1
 40
1
 40
1
 10
710.3984378115
 20
-524.6681687864
 30
0
 10
735.6586297288
 20
-524.0266880989
 30
0
 10
786.1512105174
 20
-522.6848247063
 30
0
 10
861.8353839576999
 20
-520.3971169507
 30
0
 10
924.8362428619999
 20
-518.1807343461001
 30
0
 10
975.1717697745
 20
-516.1737682019
 30
0
 10
1012.8685260075
 20
-514.5393595668
 30
0
 10
1050.518930519
 20
-512.7518876699
 30
0
 10
1088.1157738348
 20
-510.7893188137
 30
0
 10
1125.6516064827
 20
-508.6283646623
 30
0
 10
1163.1186448556
 20
-506.2495945038
 30
0
 10
1200.5069548434
 20
-503.6144213529
 30
0
 10
1237.8044543461
 20
-500.6691841403
 30
0
 10
1274.9986716551
 20
-497.3666935914
 30
0
 10
1299.7436874265
 20
-494.8840332514
 30
0
 10
1312.0928207842
 20
-493.5478416705
 30
0
  0
SPLINE
  5
217
100
AcDbEntity
  8
0
  6
CONTINUOUS
 62
    7
370
   -1
100
AcDbSpline
210
0
220
0
230
0
 70
    8
 71
    3
 72
   20
 73
   16
 74
    0
 42
1e-07
 43
1e-07
 40
0
 40
0
 40
0
 40
0
 40
0.07692307692307693
 40
0.1538461538461539
 40
0.2307692307692308
 40
0.3076923076923077
 40
0.3846153846153846
 40
0.4615384615384616
 40
0.5384615384615385
 40
0.6153846153846154
 40
0.6923076923076923
 40
0.7692307692307693
 40
0.8461538461538463
 40
0.9230769230769231
 40
1
 40
1
 40
1
 40
1
 10
-1193.1284779967
 20
-394.3958125899
 30
0
 10
-1200.299289859
 20
-397.9165422644
 30
0
 10
-1214.6663237648
 20
-404.9507951873
 30
0
 10
-1236.283030379
 20
-415.4573903299
 30
0
 10
-1258.0443915599
 20
-425.9301124053
 30
0
 10
-1280.0367557732
 20
-436.3664176094
 30
0
 10
-1298.578679903
 20
-444.9829197956
 30
0
 10
-1313.6259310081
 20
-451.7970073936
 30
0
 10
-1325.1101302742
 20
-456.8768465717
 30
0
 10
-1336.845760742
 20
-461.9005660394
 30
0
 10
-1346.8701445062
 20
-465.988747889
 30
0
 10
-1355.1590866221
 20
-469.1764355429
 30
0
 10
-1361.6563068471
 20
-471.5437502562
 30
0
 10
-1368.4855414846
 20
-473.8493947081
 30
0
 10
-1373.1911936005
 20
-475.2632231555
 30
0
 10
-1375.6298230182
 20
-475.931411567
 30
0
  0
SPLINE
  5
218
100
AcDbEntity
  8
0
  6
CONTINUOUS
 62
    7
370
   -1
100
AcDbSpline
210
0
220
0
230
0
 70
    8
 71
    3
 72
   11
 73
    7
 74
    0
 42
1e-07
 43
1e-07
 40
0
 40
0
 40
0
 40
0
 40
0.25
 40
0.5
 40
0.75
 40
1
 40
1
 40
1
 40
1
 10
689.9147381172
 20
-267.7425318285
 30
0
 10
689.7767314647
 20
-269.6983847313
 30
0
 10
689.4325558207
 20
-273.8533265688
 30
0
 10
688.7836811622
 20
-280.3679913602
 30
0
 10
687.9884000885
 20
-287.3769946489
 30
0
 10
687.379218207
 20
-292.1843257879
 30
0
 10
687.0557779901
 20
-294.630816264
 30
0
  0
SPLINE
  5
219
100
AcDbEntity
  8
0
  6
CONTINUOUS
 62
    7
370
   -1
100
AcDbSpline
210
0
220
0
230
0
 70
    8
 71
    3
 72
   30
 73
   26
 74
    0
 42
1e-07
 43
1e-07
 40
0
 40
0
 40
0
 40
0
 40
0.04347826086956522
 40
0.08695652173913043
 40
0.1304347826086956
 40
0.1739130434782609
 40
0.2173913043478261
 40
0.2608695652173913
 40
0.3043478260869565
 40
0.3478260869565217
 40
0.3913043478260869
 40
0.4347826086956522
 40
0.4782608695652174
 40
0.5217391304347826
 40
0.5652173913043478
 40
0.6086956521739131
 40
0.6521739130434783
 40
0.6956521739130435
 40
0.7391304347826086
 40
0.7826086956521738
 40
0.8260869565217391
 40
0.8695652173913043
 40
0.9130434782608695
 40
0.9565217391304348
 40
1
 40
1
 40
1
 40
1
 10
1312.0921989847
 20
-493.54813832
 30
0
 10
1314.3587909544
 20
-492.4667896393
 30
0
 10
1318.8180599394
 20
-490.3090092899
 30
0
 10
1324.3151855278
 20
-487.5690575966
 30
0
 10
1328.5813793102
 20
-485.3873671779
 30
0
 10
1331.6670480903
 20
-483.779927795
 30
0
 10
1334.6560505846
 20
-482.1911723136
 30
0
 10
1337.5320368479
 20
-480.6281608265
 30
0
 10
1340.272480833
 20
-479.0993775159
 30
0
 10
1342.4539831054
 20
-477.8444796633
 30
0
 10
1344.106112412
 20
-476.8650657882
 30
0
 10
1345.2671184816
 20
-476.1609201114
 30
0
 10
1346.3650669449
 20
-475.4773090114
 30
0
 10
1347.3915016917
 20
-474.8183118934
 30
0
 10
1348.3350904008
 20
-474.1888306086
 30
0
 10
1349.1820630914
 20
-473.5955036387
 30
0
 10
1349.91753845
 20
-473.0455213618
 30
0
 10
1350.5237572119
 20
-472.5478292784
 30
0
 10
1350.9332715013
 20
-472.1621801998
 30
0
 10
1351.1724693004
 20
-471.8826242122
 30
0
 10
1351.2920448527
 20
-471.7086573544
 30
0
 10
1351.3635559938
 20
-471.5551576468
 30
0
 10
1351.3839833822
 20
-471.4160832106
 30
0
 10
1351.3318874861
 20
-471.2957897692
 30
0
 10
1351.2602809801
 20
-471.2503905344
 30
0
 10
1351.2209140577
 20
-471.2325601576
 30
0
  0
SPLINE
  5
21A
100
AcDbEntity
  8
0
  6
CONTINUOUS
 62
    7
370
   -1
100
AcDbSpline
210
0
220
0
230
0
 70
    8
 71
    3
 72
   15
 73
   11
 74
    0
 42
1e-07
 43
1e-07
 40
0
 40
0
 40
0
 40
0
 40
0.125
 40
0.25
 40
0.375
 40
0.5
 40
0.625
 40
0.75
 40
0.875
 40
1
 40
1
 40
1
 40
1
 10
566.5328563703
 20
-222.9701776985
 30
0
 10
567.2505199884999
 20
-223.6471599615
 30
0
 10
568.6198291094
 20
-225.0726189339
 30
0
 10
570.1885481601
 20
-226.9799905132
 30
0
 10
571.3803627074
 20
-228.5568496109
 30
0
 10
572.539722093
 20
-230.1613531403
 30
0
 10
573.9240238942
 20
-232.2116247418
 30
0
 10
575.4817371907
 20
-234.7349430009
 30
0
 10
577.4380363524
 20
-238.1636836522
 30
0
 10
578.7850223676
 20
-240.8008686005
 30
0
 10
579.6310501563
 20
-242.582471437
 30
0
  0
SPLINE
  5
21B
100
AcDbEntity
  8
0
  6
CONTINUOUS
 62
    7
370
   -1
100
AcDbSpline
210
0
220
0
230
0
 70
    8
 71
    3
 72
   14
 73
   10
 74
    0
 42
1e-07
 43
1e-07
 40
0
 40
0
 40
0
 40
0
 40
0.1428571428571428
 40
0.2857142857142857
 40
0.4285714285714285
 40
0.5714285714285714
 40
0.7142857142857142
 40
0.8571428571428571
 40
1
 40
1
 40
1
 40
1
 10
1405.0502634762
 20
-316.7433604674
 30
0
 10
1372.9771959717
 20
-307.8491922431
 30
0
 10
1308.4995719233
 20
-290.7053263958
 30
0
 10
1178.1531782343
 20
-259.215307645
 30
0
 10
1045.9578181909
 20
-232.3478195789
 30
0
 10
911.9589055855
 20
-210.9197711071
 30
0
 10
809.8643740159
 20
-197.7185571352
 30
0
 10
706.3829725788
 20
-187.7213489466
 30
0
 10
636.8426591828
 20
-183.4137589416
 30
0
 10
601.8394297052999
 20
-181.8844108639
 30
0
  0
LINE
  5
21C
100
AcDbEntity
  8
0
  6
CONTINUOUS
 62
    7
370
   -1
100
AcDbLine
 10
-809.0151159498
 20
-219.0348321012
 11
-808.6944659433
 21
-220.4658214338
  0
SPLINE
  5
21D
100
AcDbEntity
  8
0
  6
CONTINUOUS
 62
    7
370
   -1
100
AcDbSpline
210
0
220
0
230
0
 70
    8
 71
    3
 72
   19
 73
   15
 74
    0
 42
1e-07
 43
1e-07
 40
0
 40
0
 40
0
 40
0
 40
0.08333333333333333
 40
0.1666666666666667
 40
0.25
 40
0.3333333333333333
 40
0.4166666666666666
 40
0.5
 40
0.5833333333333333
 40
0.6666666666666666
 40
0.75
 40
0.8333333333333333
 40
0.9166666666666666
 40
1
 40
1
 40
1
 40
1
 10
1312.0928207845
 20
-493.5478416705
 30
0
 10
1312.2244921
 20
-494.8197603882
 30
0
 10
1312.431529168
 20
-497.3185085915
 30
0
 10
1312.5763951267
 20
-500.9569609981
 30
0
 10
1312.548454021
 20
-504.3201018093
 30
0
 10
1312.3779494141
 20
-506.890984305
 30
0
 10
1312.1438758735
 20
-508.7124120119
 30
0
 10
1311.9356392836
 20
-509.8779836125
 30
0
 10
1311.6898121526
 20
-510.8923358756
 30
0
 10
1311.4084449944
 20
-511.7469767244
 30
0
 10
1311.0939052888
 20
-512.435990051
 30
0
 10
1310.7466431917
 20
-512.9562734053
 30
0
 10
1310.3613495441
 20
-513.3067176679
 30
0
 10
1310.0613772435
 20
-513.4163624231001
 30
0
 10
1309.9200687128
 20
-513.4317111399
 30
0
  0
SPLINE
  5
21E
100
AcDbEntity
  8
0
  6
CONTINUOUS
 62
    7
370
   -1
100
AcDbSpline
210
0
220
0
230
0
 70
    8
 71
    3
 72
   14
 73
   10
 74
    0
 42
1e-07
 43
1e-07
 40
0
 40
0
 40
0
 40
0
 40
0.1428571428571428
 40
0.2857142857142857
 40
0.4285714285714285
 40
0.5714285714285714
 40
0.7142857142857142
 40
0.8571428571428571
 40
1
 40
1
 40
1
 40
1
 10
-1392.464859084
 20
391.8138502843
 30
0
 10
-1392.2378472155
 20
390.2324829548
 30
0
 10
-1391.6673265968
 20
387.1020913126
 30
0
 10
-1390.4483772574
 20
382.5179439356
 30
0
 10
-1388.8615661272
 20
378.1072423229
 30
0
 10
-1386.9060768641
 20
373.9070473025
 30
0
 10
-1384.5932152821
 20
369.9406129793
 30
0
 10
-1381.0572275326
 20
365.0121596542
 30
0
 10
-1377.903496455
 20
361.7083559053
 30
0
 10
-1375.6298235933
 20
359.7270885596
 30
0
  0
LINE
  5
21F
100
AcDbEntity
  8
0
  6
CONTINUOUS
 62
    7
370
   -1
100
AcDbLine
 10
-1393.0846934986
 20
396.2866883119
 11
-1393.0066470334
 21
395.7050581669
  0
LINE
  5
220
100
AcDbEntity
  8
0
  6
CONTINUOUS
 62
    7
370
   -1
100
AcDbLine
 10
-1392.541874746
 20
392.3519250233
 11
-1392.4649161973
 21
391.8137519555
  0
LINE
  5
221
100
AcDbEntity
  8
0
  6
CONTINUOUS
 62
    7
370
   -1
100
AcDbLine
 10
-1392.4641885465
 20
808.1884864197
 11
-1392.5267973811
 21
807.7499048455001
  0
SPLINE
  5
222
100
AcDbEntity
  8
0
  6
CONTINUOUS
 62
    7
370
   -1
100
AcDbSpline
210
0
220
0
230
0
 70
    8
 71
    3
 72
   12
 73
    8
 74
    0
 42
1e-07
 43
1e-07
 40
0
 40
0
 40
0
 40
0
 40
0.2
 40
0.4
 40
0.6000000000000001
 40
0.8
 40
1
 40
1
 40
1
 40
1
 10
-1375.6381927956
 20
840.2991756899
 30
0
 10
-1376.7757496513
 20
839.3066193154
 30
0
 10
-1378.9606143145
 20
837.211941001
 30
0
 10
-1382.9417607998
 20
832.63055763
 30
0
 10
-1387.1217527654
 20
826.1628516288
 30
0
 10
-1390.6632167578
 20
817.4941857117
 30
0
 10
-1392.0132178636
 20
811.3334420563
 30
0
 10
-1392.4638020551
 20
808.1882518457001
 30
0
  0
SPLINE
  5
223
100
AcDbEntity
  8
0
  6
CONTINUOUS
 62
    7
370
   -1
100
AcDbSpline
210
0
220
0
230
0
 70
    8
 71
    3
 72
    8
 73
    4
 74
    0
 42
1e-07
 43
1e-07
 40
0
 40
0
 40
0
 40
0
 40
1
 40
1
 40
1
 40
1
 10
-1192.4189703619
 20
892.8193581922
 30
0
 10
-1151.6994679903
 20
896.8206804744
 30
0
 10
-1104.8948466862
 20
899.1863712378999
 30
0
 10
-1052.0051064497
 20
899.9164304826
 30
0
  0
SPLINE
  5
224
100
AcDbEntity
  8
0
  6
CONTINUOUS
 62
    7
370
   -1
100
AcDbSpline
210
0
220
0
230
0
 70
    8
 71
    3
 72
    8
 73
    4
 74
    0
 42
1e-07
 43
1e-07
 40
0
 40
0
 40
0
 40
0
 40
1
 40
1
 40
1
 40
1
 10
-1375.6358177103
 20
840.2986488013
 30
0
 10
-1345.909042494
 20
866.2309747
 30
0
 10
-1284.8367600446
 20
883.7378778303
 30
0
 10
-1192.4189703619
 20
892.8193581922
 30
0
  0
SPLINE
  5
225
100
AcDbEntity
  8
0
  6
CONTINUOUS
 62
    7
370
   -1
100
AcDbSpline
210
0
220
0
230
0
 70
    8
 71
    3
 72
   27
 73
   23
 74
    0
 42
1e-07
 43
1e-07
 40
0
 40
0
 40
0
 40
0
 40
0.05
 40
0.1
 40
0.15
 40
0.2
 40
0.25
 40
0.3
 40
0.35
 40
0.4
 40
0.45
 40
0.5
 40
0.55
 40
0.6000000000000001
 40
0.65
 40
0.7000000000000001
 40
0.75
 40
0.8
 40
0.8500000000000001
 40
0.9
 40
0.9500000000000001
 40
1
 40
1
 40
1
 40
1
 10
-523.5877089974
 20
895.2403056488999
 30
0
 10
-527.4242627857
 20
894.5907741704
 30
0
 10
-535.1433062431
 20
893.2367333095
 30
0
 10
-546.7950870181
 20
891.2211815845
 30
0
 10
-558.6005661798
 20
889.3733928036
 30
0
 10
-568.5376340895
 20
888.1121162853
 30
0
 10
-576.5405831229
 20
887.3482605147
 30
0
 10
-582.5610242445
 20
886.9193382213
 30
0
 10
-588.5887198112
 20
886.6547620710001
 30
0
 10
-594.6160240043999
 20
886.5766787672
 30
0
 10
-600.6335313216
 20
886.6748643861
 30
0
 10
-608.6162974841
 20
887.0227236291
 30
0
 10
-616.551812409
 20
887.6711872145
 30
0
 10
-624.4186846479
 20
888.5756622906
 30
0
 10
-632.1640822499
 20
889.6250742884
 30
0
 10
-641.6946607858
 20
891.1575726618
 30
0
 10
-652.9353270299
 20
893.1809847707
 30
0
 10
-663.9314846929
 20
895.1966112247
 30
0
 10
-674.6700972367
 20
897.0536908829
 30
0
 10
-685.1299887583
 20
898.609703073
 30
0
 10
-695.2759328215
 20
899.7083628852999
 30
0
 10
-701.9492115210001
 20
900.0116879653
 30
0
 10
-705.2147273992
 20
900.0116879653
 30
0
  0
SPLINE
  5
226
100
AcDbEntity
  8
0
  6
CONTINUOUS
 62
    7
370
   -1
100
AcDbSpline
210
0
220
0
230
0
 70
    8
 71
    3
 72
   11
 73
    7
 74
    0
 42
1e-07
 43
1e-07
 40
0
 40
0
 40
0
 40
0
 40
0.25
 40
0.5
 40
0.75
 40
1
 40
1
 40
1
 40
1
 10
-474.8943300091
 20
900.0116879653
 30
0
 10
-478.7850027326
 20
900.0116879653
 30
0
 10
-486.7061408684
 20
899.6593131598
 30
0
 10
-498.7209009586
 20
898.4773428944
 30
0
 10
-511.0512135737
 20
896.9081935186
 30
0
 10
-519.3745822471
 20
895.7850814456
 30
0
 10
-523.5885715478
 20
895.2403056488999
 30
0
  0
SPLINE
  5
227
100
AcDbEntity
  8
0
  6
CONTINUOUS
 62
    7
370
   -1
100
AcDbSpline
210
0
220
0
230
0
 70
    8
 71
    3
 72
   14
 73
   10
 74
    0
 42
1e-07
 43
1e-07
 40
0
 40
0
 40
0
 40
0
 40
0.1428571428571428
 40
0.2857142857142857
 40
0.4285714285714285
 40
0.5714285714285714
 40
0.7142857142857142
 40
0.8571428571428571
 40
1
 40
1
 40
1
 40
1
 10
450.671479986
 20
880.0108677553
 30
0
 10
451.8054883784
 20
878.6478837948
 30
0
 10
453.4020554157
 20
876.4870023178
 30
0
 10
455.2233796348
 20
873.3877346338001
 30
0
 10
456.4275872759
 20
870.9188782954
 30
0
 10
457.4245124304
 20
868.3264228334
 30
0
 10
458.1714505865
 20
865.6226938337001
 30
0
 10
458.635939519
 20
862.8381433439999
 30
0
 10
458.7451113019
 20
860.9525931597
 30
0
 10
458.7451112565
 20
860.0100475454
 30
0
  0
SPLINE
  5
228
100
AcDbEntity
  8
0
  6
CONTINUOUS
 62
    7
370
   -1
100
AcDbSpline
210
0
220
0
230
0
 70
    8
 71
    3
 72
    8
 73
    4
 74
    0
 42
1e-07
 43
1e-07
 40
0
 40
0
 40
0
 40
0
 40
1
 40
1
 40
1
 40
1
 10
-1193.1284779967
 20
307.2935222191
 30
0
 10
-1285.1422478517
 20
316.4073223552
 30
0
 10
-1345.9760234041
 20
333.8851846042
 30
0
 10
-1375.6298046538
 20
359.7271089661
 30
0
  0
SPLINE
  5
229
100
AcDbEntity
  8
0
  6
CONTINUOUS
 62
    7
370
   -1
100
AcDbSpline
210
0
220
0
230
0
 70
    8
 71
    3
 72
    8
 73
    4
 74
    0
 42
1e-07
 43
1e-07
 40
0
 40
0
 40
0
 40
0
 40
1
 40
1
 40
1
 40
1
 10
-1050.3809182246
 20
300.0765482738
 30
0
 10
-1104.2452550246
 20
300.7971031082
 30
0
 10
-1151.8277749486
 20
303.20276109
 30
0
 10
-1193.1284779967
 20
307.2935222191
 30
0
  0
SPLINE
  5
22A
100
AcDbEntity
  8
0
  6
CONTINUOUS
 62
    7
370
   -1
100
AcDbSpline
210
0
220
0
230
0
 70
    8
 71
    3
 72
    8
 73
    4
 74
    0
 42
1e-07
 43
1e-07
 40
0
 40
0
 40
0
 40
0
 40
1
 40
1
 40
1
 40
1
 10
518.0190460584
 20
900.0114958833
 30
0
 10
799.1808010541
 20
889.5428352346
 30
0
 10
1051.7811764153
 20
860.7909860873
 30
0
 10
1275.8201721421
 20
813.7559484414001
 30
0
  0
SPLINE
  5
22B
100
AcDbEntity
  8
0
  6
CONTINUOUS
 62
    7
370
   -1
100
AcDbSpline
210
0
220
0
230
0
 70
    8
 71
    3
 72
   32
 73
   28
 74
    0
 42
1e-07
 43
1e-07
 40
0
 40
0
 40
0
 40
0
 40
0.04
 40
0.08
 40
0.12
 40
0.16
 40
0.2
 40
0.24
 40
0.28
 40
0.32
 40
0.36
 40
0.4
 40
0.44
 40
0.48
 40
0.52
 40
0.5600000000000001
 40
0.6
 40
0.64
 40
0.68
 40
0.72
 40
0.76
 40
0.8
 40
0.84
 40
0.88
 40
0.92
 40
0.96
 40
1
 40
1
 40
1
 40
1
 10
-708.6198332295
 20
299.9870816661
 30
0
 10
-706.5213799642
 20
299.9870816661
 30
0
 10
-702.2602322674001
 20
300.1293370775
 30
0
 10
-693.5303826607
 20
300.8786597307
 30
0
 10
-682.2772135487
 20
302.5436887644
 30
0
 10
-668.4572083817
 20
305.2547907614
 30
0
 10
-654.1960850446
 20
308.378312447
 30
0
 10
-642.0383898742
 20
311.0329197974
 30
0
 10
-632.0905707556
 20
313.0044751404
 30
0
 10
-624.489586768
 20
314.3557962319
 30
0
 10
-616.793218777
 20
315.5077397779
 30
0
 10
-609.0097887701
 20
316.3919065472
 30
0
 10
-601.1552714899
 20
316.9553370429
 30
0
 10
-593.2532483232
 20
317.1446106756
 30
0
 10
-585.3335747078
 20
316.9544529628
 30
0
 10
-577.4262249939
 20
316.3902426182
 30
0
 10
-569.5551222085001
 20
315.5054200378
 30
0
 10
-561.7367020347
 20
314.3530227183
 30
0
 10
-553.9798181061
 20
313.0012312974
 30
0
 10
-546.2877834208
 20
311.5143353331
 30
0
 10
-538.6630937419
 20
309.9458525725
 30
0
 10
-528.6362678524
 20
307.8301915325
 30
0
 10
-516.3053522414
 20
305.2391525226
 30
0
 10
-501.7433100598
 20
302.5294547453
 30
0
 10
-489.7916841864
 20
300.8733378923
 30
0
 10
-480.4404172591
 20
300.1279996523
 30
0
 10
-475.8475289636
 20
299.9870816661
 30
0
 10
-473.5778815579
 20
299.9870816661
 30
0
  0
SPLINE
  5
22C
100
AcDbEntity
  8
0
  6
CONTINUOUS
 62
    7
370
   -1
100
AcDbSpline
210
0
220
0
230
0
 70
    8
 71
    3
 72
   14
 73
   10
 74
    0
 42
1e-07
 43
1e-07
 40
0
 40
0
 40
0
 40
0
 40
0.1428571428571428
 40
0.2857142857142857
 40
0.4285714285714285
 40
0.5714285714285714
 40
0.7142857142857142
 40
0.8571428571428571
 40
1
 40
1
 40
1
 40
1
 10
458.7451112565
 20
339.988722086
 30
0
 10
458.7451112565
 20
339.0461596304
 30
0
 10
458.6359753085
 20
337.1605628252
 30
0
 10
458.1716639039
 20
334.3758843519
 30
0
 10
457.4251350138
 20
331.6719158351
 30
0
 10
456.4286018964
 20
329.0791968815
 30
0
 10
455.2245004684
 20
326.6102540278
 30
0
 10
453.4025521447
 20
323.5113415249
 30
0
 10
451.8053795108
 20
321.3509850122
 30
0
 10
450.671479986
 20
319.9879018761
 30
0
  0
SPLINE
  5
22D
100
AcDbEntity
  8
0
  6
CONTINUOUS
 62
    7
370
   -1
100
AcDbSpline
210
0
220
0
230
0
 70
    8
 71
    3
 72
   23
 73
   19
 74
    0
 42
1e-07
 43
1e-07
 40
0
 40
0
 40
0
 40
0
 40
0.0625
 40
0.125
 40
0.1875
 40
0.25
 40
0.3125
 40
0.375
 40
0.4375
 40
0.5
 40
0.5625
 40
0.625
 40
0.6875
 40
0.75
 40
0.8125
 40
0.875
 40
0.9375
 40
1
 40
1
 40
1
 40
1
 10
557.0154865734
 20
733.6388345207
 30
0
 10
557.0504123741
 20
733.6494319263001
 30
0
 10
557.1142112528
 20
733.6754650332
 30
0
 10
557.2334683634
 20
733.7406954711
 30
0
 10
557.391966155
 20
733.8114535249
 30
0
 10
557.5982248061
 20
733.888561233
 30
0
 10
557.8227277172
 20
733.9610433108001
 30
0
 10
558.0619136409
 20
734.0288991762
 30
0
 10
558.4030014639
 20
734.1148330595
 30
0
 10
558.8532335018
 20
734.2103068242
 30
0
 10
559.4173007081999
 20
734.3076474659
 30
0
 10
560.0066859746
 20
734.390369666
 30
0
 10
560.6160788155
 20
734.4592659227
 30
0
 10
561.4571039261
 20
734.534229399
 30
0
 10
562.5352769789
 20
734.5963749113
 30
0
 10
563.8518088032999
 20
734.6246288003
 30
0
 10
565.1898749656
 20
734.6168642405
 30
0
 10
566.0868193689
 20
734.5769863217
 30
0
 10
566.5373798237
 20
734.5550050197
 30
0
  0
SPLINE
  5
22E
100
AcDbEntity
  8
0
  6
CONTINUOUS
 62
    7
370
   -1
100
AcDbSpline
210
0
220
0
230
0
 70
    8
 71
    3
 72
   19
 73
   15
 74
    0
 42
1e-07
 43
1e-07
 40
0
 40
0
 40
0
 40
0
 40
0.08333333333333333
 40
0.1666666666666667
 40
0.25
 40
0.3333333333333333
 40
0.4166666666666666
 40
0.5
 40
0.5833333333333333
 40
0.6666666666666666
 40
0.75
 40
0.8333333333333333
 40
0.9166666666666666
 40
1
 40
1
 40
1
 40
1
 10
595.9338691581
 20
715.2588825105
 30
0
 10
596.0959080364
 20
716.6129301328
 30
0
 10
596.4379052391
 20
719.1514551411
 30
0
 10
597.0554780983
 20
722.6871291056
 30
0
 10
597.7379811784
 20
725.6927688551
 30
0
 10
598.3777994693
 20
727.8511608644
 30
0
 10
598.9239828857
 20
729.296816402
 30
0
 10
599.3194139574
 20
730.1842941034
 30
0
 10
599.7210687957
 20
730.9343983775
 30
0
 10
600.1289035454
 20
731.5472154023
 30
0
 10
600.543754543
 20
732.0232285454
 30
0
 10
600.9683797000999
 20
732.3619192396
 30
0
 10
601.4049513341999
 20
732.5601968116
 30
0
 10
601.7058888646
 20
732.5926368947
 30
0
 10
601.8479225505999
 20
732.583720302
 30
0
  0
SPLINE
  5
22F
100
AcDbEntity
  8
0
  6
CONTINUOUS
 62
    7
370
   -1
100
AcDbSpline
210
0
220
0
230
0
 70
    8
 71
    3
 72
   19
 73
   15
 74
    0
 42
1e-07
 43
1e-07
 40
0
 40
0
 40
0
 40
0
 40
0.08333333333333333
 40
0.1666666666666667
 40
0.25
 40
0.3333333333333333
 40
0.4166666666666666
 40
0.5
 40
0.5833333333333333
 40
0.6666666666666666
 40
0.75
 40
0.8333333333333333
 40
0.9166666666666666
 40
1
 40
1
 40
1
 40
1
 10
601.8401933448999
 20
467.4124190323
 30
0
 10
601.6982150386
 20
467.4034995729
 30
0
 10
601.3974887284
 20
467.4359236246
 30
0
 10
600.9615070619
 20
467.6344782247
 30
0
 10
600.5380482869
 20
467.9736513828
 30
0
 10
600.1248614038
 20
468.4502796023
 30
0
 10
599.7188687084
 20
469.0636960089
 30
0
 10
599.3189196205
 20
469.8143126215
 30
0
 10
598.924791322
 20
470.7021496407
 30
0
 10
598.3798978406001
 20
472.1481764769
 30
0
 10
597.7405875539999
 20
474.3065884456
 30
0
 10
597.0573718643
 20
477.3119091084
 30
0
 10
596.4380317718
 20
480.8470747402
 30
0
 10
596.0953469623
 20
483.3853710183
 30
0
 10
595.9333487613
 20
484.7393521556
 30
0
  0
SPLINE
  5
230
100
AcDbEntity
  8
0
  6
CONTINUOUS
 62
    7
370
   -1
100
AcDbSpline
210
0
220
0
230
0
 70
    8
 71
    3
 72
   20
 73
   16
 74
    0
 42
1e-07
 43
1e-07
 40
0
 40
0
 40
0
 40
0
 40
0.07692307692307693
 40
0.1538461538461539
 40
0.2307692307692308
 40
0.3076923076923077
 40
0.3846153846153846
 40
0.4615384615384616
 40
0.5384615384615385
 40
0.6153846153846154
 40
0.6923076923076923
 40
0.7692307692307693
 40
0.8461538461538463
 40
0.9230769230769231
 40
1
 40
1
 40
1
 40
1
 10
557.0154865734
 20
466.3965996976
 30
0
 10
557.05544839
 20
466.3586712994
 30
0
 10
557.1600318371
 20
466.2946757173
 30
0
 10
557.3344742597
 20
466.2111275049
 30
0
 10
557.5369142484
 20
466.1318408865
 30
0
 10
557.8409348500001
 20
466.0298935761
 30
0
 10
558.2565339117
 20
465.9169856353
 30
0
 10
558.7884727728
 20
465.8012750756
 30
0
 10
559.3546912219
 20
465.7013111557
 30
0
 10
560.156232002
 20
465.5862381707
 30
0
 10
561.2021965541001
 20
465.4799817177
 30
0
 10
562.495257012
 20
465.4037948662
 30
0
 10
563.8237302103
 20
465.3731471288
 30
0
 10
565.173754278
 20
465.3839277901
 30
0
 10
566.0790059531
 20
465.4168741498
 30
0
 10
566.5333273464
 20
465.4390326524
 30
0
  0
SPLINE
  5
231
100
AcDbEntity
  8
0
  6
CONTINUOUS
 62
    7
370
   -1
100
AcDbSpline
210
0
220
0
230
0
 70
    8
 71
    3
 72
   13
 73
    9
 74
    0
 42
1e-07
 43
1e-07
 40
0
 40
0
 40
0
 40
0
 40
0.1666666666666667
 40
0.3333333333333333
 40
0.5
 40
0.6666666666666666
 40
0.8333333333333333
 40
1
 40
1
 40
1
 40
1
 10
458.7461493682
 20
349.9892526169
 30
0
 10
478.0203396125
 20
350.5154734103
 30
0
 10
506.930545675
 20
351.1674401007
 30
0
 10
545.4751547897
 20
351.6275033283
 30
0
 10
574.3650484383001
 20
351.742248434
 30
0
 10
603.2357807385
 20
351.6187216058
 30
0
 10
641.6728426137
 20
351.152935873
 30
0
 10
670.4818833238
 20
350.506622378
 30
0
 10
689.674202903
 20
349.9892607324
 30
0
  0
SPLINE
  5
232
100
AcDbEntity
  8
0
  6
CONTINUOUS
 62
    7
370
   -1
100
AcDbSpline
210
0
220
0
230
0
 70
    8
 71
    3
 72
   12
 73
    8
 74
    0
 42
1e-07
 43
1e-07
 40
0
 40
0
 40
0
 40
0
 40
0.2
 40
0.4
 40
0.6000000000000001
 40
0.8
 40
1
 40
1
 40
1
 40
1
 10
689.8782055761
 20
345.2301600987
 30
0
 10
690.2175722728
 20
342.4133180347
 30
0
 10
691.3645544475
 20
338.3028294707
 30
0
 10
693.8438592886
 20
333.3861787926
 30
0
 10
696.6478148046
 20
329.0749275893
 30
0
 10
700.6580222388
 20
324.4718974857
 30
0
 10
704.293092207
 20
321.3618187088
 30
0
 10
706.134604266
 20
319.9879018761
 30
0
  0
SPLINE
  5
233
100
AcDbEntity
  8
0
  6
CONTINUOUS
 62
    7
370
   -1
100
AcDbSpline
210
0
220
0
230
0
 70
    8
 71
    3
 72
    8
 73
    4
 74
    0
 42
1e-07
 43
1e-07
 40
0
 40
0
 40
0
 40
0
 40
1
 40
1
 40
1
 40
1
 10
1312.0928207842
 20
394.0731463446
 30
0
 10
1124.3674416204
 20
352.4197463037
 30
0
 10
916.0217606919
 20
323.9660988789
 30
0
 10
687.0557779988
 20
308.7122040702
 30
0
  0
SPLINE
  5
234
100
AcDbEntity
  8
0
  6
CONTINUOUS
 62
    7
370
   -1
100
AcDbSpline
210
0
220
0
230
0
 70
    8
 71
    3
 72
   10
 73
    6
 74
    0
 42
1e-07
 43
1e-07
 40
0
 40
0
 40
0
 40
0
 40
0.3333333333333333
 40
0.6666666666666666
 40
1
 40
1
 40
1
 40
1
 10
689.9143643149999
 20
319.5259802748
 30
0
 10
670.0228055448
 20
318.984462024
 30
0
 10
640.1542144373
 20
318.3163544037
 30
0
 10
600.2937130785
 20
317.8872646419
 30
0
 10
580.3299290481
 20
317.8487998191
 30
0
 10
570.3425207295001
 20
317.8751673879
 30
0
  0
SPLINE
  5
235
100
AcDbEntity
  8
0
  6
CONTINUOUS
 62
    7
370
   -1
100
AcDbSpline
210
0
220
0
230
0
 70
    8
 71
    3
 72
   14
 73
   10
 74
    0
 42
1e-07
 43
1e-07
 40
0
 40
0
 40
0
 40
0
 40
0.1428571428571428
 40
0.2857142857142857
 40
0.4285714285714285
 40
0.5714285714285714
 40
0.7142857142857142
 40
0.8571428571428571
 40
1
 40
1
 40
1
 40
1
 10
689.6750822374
 20
851.3735043621
 30
0
 10
689.6728198274
 20
852.9690009891
 30
0
 10
689.9404961517
 20
856.1365562159
 30
0
 10
691.108162598
 20
860.6832290087
 30
0
 10
692.8831059770999
 20
864.8749965091999
 30
0
 10
695.0994748312
 20
868.6550307017
 30
0
 10
697.6185518136
 20
872.026517504
 30
0
 10
701.1604298062
 20
875.9439921177
 30
0
 10
704.104819594
 20
878.496401175
 30
0
 10
706.1344546719
 20
880.0108677553
 30
0
  0
SPLINE
  5
236
100
AcDbEntity
  8
0
  6
CONTINUOUS
 62
    7
370
   -1
100
AcDbSpline
210
0
220
0
230
0
 70
    8
 71
    3
 72
   13
 73
    9
 74
    0
 42
1e-07
 43
1e-07
 40
0
 40
0
 40
0
 40
0
 40
0.1666666666666667
 40
0.3333333333333333
 40
0.5
 40
0.6666666666666666
 40
0.8333333333333333
 40
1
 40
1
 40
1
 40
1
 10
689.674202903
 20
850.009508899
 30
0
 10
670.4818896339
 20
849.4921474235
 30
0
 10
641.6728525587999
 20
848.8458359154999
 30
0
 10
603.2357919617
 20
848.3800357879001
 30
0
 10
574.3650514977001
 20
848.2565427488
 30
0
 10
545.4751515833
 20
848.3712540117
 30
0
 10
506.9305412229
 20
848.8313275877
 30
0
 10
478.0203370256
 20
849.4832962917
 30
0
 10
458.7461493682
 20
850.0095170145
 30
0
  0
SPLINE
  5
237
100
AcDbEntity
  8
0
  6
CONTINUOUS
 62
    7
370
   -1
100
AcDbSpline
210
0
220
0
230
0
 70
    8
 71
    3
 72
   12
 73
    8
 74
    0
 42
1e-07
 43
1e-07
 40
0
 40
0
 40
0
 40
0
 40
0.2
 40
0.4
 40
0.6000000000000001
 40
0.8
 40
1
 40
1
 40
1
 40
1
 10
520.4665306389001
 20
881.6350276121
 30
0
 10
535.9854010264
 20
881.8920868013
 30
0
 10
559.2580248304
 20
882.1396531197
 30
0
 10
590.2769433163
 20
882.1428924654
 30
0
 10
621.2395172609
 20
881.930611577
 30
0
 10
659.8588727512
 20
881.2855649618
 30
0
 10
690.7265257288
 20
880.4681133854
 30
0
 10
706.1325390998001
 20
880.0109074353001
 30
0
  0
SPLINE
  5
238
100
AcDbEntity
  8
0
  6
CONTINUOUS
 62
    7
370
   -1
100
AcDbSpline
210
0
220
0
230
0
 70
    8
 71
    3
 72
   12
 73
    8
 74
    0
 42
1e-07
 43
1e-07
 40
0
 40
0
 40
0
 40
0
 40
0.2
 40
0.4
 40
0.6000000000000001
 40
0.8
 40
1
 40
1
 40
1
 40
1
 10
-540.5008481523
 20
414.6053030033
 30
0
 10
-565.0491154809
 20
415.1012476515
 30
0
 10
-614.1326051941001
 20
415.7510649505
 30
0
 10
-675.4550069718
 20
415.971413149
 30
0
 10
-724.4268391742
 20
415.8503242264
 30
0
 10
-773.1342360274
 20
415.5329090682
 30
0
 10
-809.6044779926
 20
415.0539834271
 30
0
 10
-833.8700993742
 20
414.6108764484
 30
0
  0
SPLINE
  5
239
100
AcDbEntity
  8
0
  6
CONTINUOUS
 62
    7
370
   -1
100
AcDbSpline
210
0
220
0
230
0
 70
    8
 71
    3
 72
   11
 73
    7
 74
    0
 42
1e-07
 43
1e-07
 40
0
 40
0
 40
0
 40
0
 40
0.25
 40
0.5
 40
0.75
 40
1
 40
1
 40
1
 40
1
 10
-1285.1192805136
 20
358.4349597661
 30
0
 10
-1278.6959947755
 20
357.1061397241
 30
0
 10
-1265.8096075602
 20
354.6988200066
 30
0
 10
-1246.3825731709
 20
351.6826421667
 30
0
 10
-1226.8896553338
 20
349.1563517251
 30
0
 10
-1213.8573887896
 20
347.7465688085
 30
0
 10
-1207.3333628779
 20
347.1003756535
 30
0
  0
SPLINE
  5
23A
100
AcDbEntity
  8
0
  6
CONTINUOUS
 62
    7
370
   -1
100
AcDbSpline
210
0
220
0
230
0
 70
    8
 71
    3
 72
   26
 73
   22
 74
    0
 42
1e-07
 43
1e-07
 40
0
 40
0
 40
0
 40
0
 40
0.05263157894736842
 40
0.1052631578947368
 40
0.1578947368421053
 40
0.2105263157894737
 40
0.2631578947368421
 40
0.3157894736842105
 40
0.3684210526315789
 40
0.4210526315789473
 40
0.4736842105263158
 40
0.5263157894736842
 40
0.5789473684210527
 40
0.631578947368421
 40
0.6842105263157894
 40
0.7368421052631579
 40
0.7894736842105263
 40
0.8421052631578947
 40
0.8947368421052631
 40
0.9473684210526315
 40
1
 40
1
 40
1
 40
1
 10
-111.1148530679
 20
299.9870816661
 30
0
 10
-111.1413314105
 20
299.9870816652
 30
0
 10
-111.1805075303
 20
300.0322962857
 30
0
 10
-111.2134796799
 20
300.100385223
 30
0
 10
-111.2450512785
 20
300.1859454077
 30
0
 10
-111.2756584021
 20
300.293745061
 30
0
 10
-111.3205764416
 20
300.4849696981
 30
0
 10
-111.3739631467
 20
300.7840069048
 30
0
 10
-111.4344286655
 20
301.2146275544
 30
0
 10
-111.5211250577
 20
301.9744157207
 30
0
 10
-111.6225145104
 20
303.1508231475
 30
0
 10
-111.7340431704
 20
304.8245247589
 30
0
 10
-111.8405239179
 20
306.8352574168
 30
0
 10
-111.9406607837
 20
309.1655833532
 30
0
 10
-112.0330277987
 20
311.794044903
 30
0
 10
-112.1170060571
 20
314.694576582
 30
0
 10
-112.1916936623
 20
317.8377148605
 30
0
 10
-112.2562997308
 20
321.1934354761
 30
0
 10
-112.3291311276
 20
325.9998124951
 30
0
 10
-112.3891287012
 20
332.2857048657
 30
0
 10
-112.4052940513
 20
337.3889615758
 30
0
 10
-112.4052906947
 20
339.9902945967
 30
0
  0
SPLINE
  5
23B
100
AcDbEntity
  8
0
  6
CONTINUOUS
 62
    7
370
   -1
100
AcDbSpline
210
0
220
0
230
0
 70
    8
 71
    3
 72
   25
 73
   21
 74
    0
 42
1e-07
 43
1e-07
 40
0
 40
0
 40
0
 40
0
 40
0.05555555555555555
 40
0.1111111111111111
 40
0.1666666666666667
 40
0.2222222222222222
 40
0.2777777777777778
 40
0.3333333333333333
 40
0.3888888888888888
 40
0.4444444444444444
 40
0.5
 40
0.5555555555555556
 40
0.611111111111111
 40
0.6666666666666666
 40
0.7222222222222222
 40
0.7777777777777777
 40
0.8333333333333333
 40
0.8888888888888888
 40
0.9444444444444444
 40
1
 40
1
 40
1
 40
1
 10
-248.2339285075
 20
299.9870816661
 30
0
 10
-248.1951709629
 20
299.9870816661
 30
0
 10
-248.1321089787
 20
300.0240521322
 30
0
 10
-248.0700668038
 20
300.0996383404
 30
0
 10
-247.9927495702
 20
300.2261280952
 30
0
 10
-247.9028186041
 20
300.4470422844
 30
0
 10
-247.8009438671
 20
300.7841757867
 30
0
 10
-247.6996948282
 20
301.2149904114
 30
0
 10
-247.5990482161
 20
301.7387326052
 30
0
 10
-247.4996337491
 20
302.3544844246
 30
0
 10
-247.3611735776
 20
303.3536402812
 30
0
 10
-247.1980802889
 20
304.8207493731
 30
0
 10
-247.020031759
 20
306.8324706879
 30
0
 10
-246.8525976141
 20
309.1633563767
 30
0
 10
-246.6976380599
 20
311.7911770619
 30
0
 10
-246.5570793625
 20
314.6905437688
 30
0
 10
-246.3852006469
 20
319.0154878555
 30
0
 10
-246.2203288614
 20
324.8743028241
 30
0
 10
-246.1015316228
 20
332.2835076127
 30
0
 10
-246.0748296448
 20
337.387858672
 30
0
 10
-246.0748296448
 20
339.988722086
 30
0
  0
SPLINE
  5
23C
100
AcDbEntity
  8
0
  6
CONTINUOUS
 62
    7
370
   -1
100
AcDbSpline
210
0
220
0
230
0
 70
    8
 71
    3
 72
   25
 73
   21
 74
    0
 42
1e-07
 43
1e-07
 40
0
 40
0
 40
0
 40
0
 40
0.05555555555555555
 40
0.1111111111111111
 40
0.1666666666666667
 40
0.2222222222222222
 40
0.2777777777777778
 40
0.3333333333333333
 40
0.3888888888888888
 40
0.4444444444444444
 40
0.5
 40
0.5555555555555556
 40
0.611111111111111
 40
0.6666666666666666
 40
0.7222222222222222
 40
0.7777777777777777
 40
0.8333333333333333
 40
0.8888888888888888
 40
0.9444444444444444
 40
1
 40
1
 40
1
 40
1
 10
-422.604669818
 20
299.9870816661
 30
0
 10
-422.5659122734
 20
299.9870816661
 30
0
 10
-422.5028502892
 20
300.0240521322
 30
0
 10
-422.4408081142
 20
300.0996383404
 30
0
 10
-422.3634908807
 20
300.2261280952
 30
0
 10
-422.2735599146
 20
300.4470422844
 30
0
 10
-422.1716851776
 20
300.7841757867
 30
0
 10
-422.0704361386
 20
301.2149904114
 30
0
 10
-421.9697895266
 20
301.7387326052
 30
0
 10
-421.8703750595
 20
302.3544844246
 30
0
 10
-421.731914888
 20
303.3536402812
 30
0
 10
-421.5688215993
 20
304.8207493731
 30
0
 10
-421.3907730694
 20
306.8324706879
 30
0
 10
-421.2233389245
 20
309.1633563767
 30
0
 10
-421.0683793704
 20
311.7911770619
 30
0
 10
-420.927820673
 20
314.6905437688
 30
0
 10
-420.7559419573
 20
319.0154878555
 30
0
 10
-420.5910701718
 20
324.8743028241
 30
0
 10
-420.4722729333
 20
332.2835076127
 30
0
 10
-420.4455709553
 20
337.387858672
 30
0
 10
-420.4455709553
 20
339.988722086
 30
0
  0
SPLINE
  5
23D
100
AcDbEntity
  8
0
  6
CONTINUOUS
 62
    7
370
   -1
100
AcDbSpline
210
0
220
0
230
0
 70
    8
 71
    3
 72
   22
 73
   18
 74
    0
 42
1e-07
 43
1e-07
 40
0
 40
0
 40
0
 40
0
 40
0.06666666666666667
 40
0.1333333333333333
 40
0.2
 40
0.2666666666666667
 40
0.3333333333333333
 40
0.4
 40
0.4666666666666667
 40
0.5333333333333333
 40
0.6
 40
0.6666666666666666
 40
0.7333333333333333
 40
0.8
 40
0.8666666666666667
 40
0.9333333333333333
 40
1
 40
1
 40
1
 40
1
 10
-1207.9414450364
 20
797.577223902
 30
0
 10
-1211.1789032765
 20
798.5291924281
 30
0
 10
-1217.6453255336
 20
800.4379101432
 30
0
 10
-1227.3259053536
 20
803.2998891261
 30
0
 10
-1235.3729552897
 20
805.6678995845
 30
0
 10
-1241.7870405608
 20
807.5405740523
 30
0
 10
-1246.5745895679
 20
808.9270446335
 30
0
 10
-1251.3524756073
 20
810.2782138807
 30
0
 10
-1256.1266403536
 20
811.5763084867
 30
0
 10
-1260.1100879692
 20
812.5991500983
 30
0
 10
-1263.3001032239
 20
813.3727770235
 30
0
 10
-1266.4876900903
 20
814.1104429434
 30
0
 10
-1270.485930597
 20
814.9260723599
 30
0
 10
-1274.5239472835
 20
815.4913481537
 30
0
 10
-1277.7679806815
 20
815.7272885227
 30
0
 10
-1281.0132652315
 20
815.7960677633999
 30
0
 10
-1283.4460121954
 20
815.6471487369
 30
0
 10
-1285.0580494256
 20
815.4790588461
 30
0
  0
SPLINE
  5
23E
100
AcDbEntity
  8
0
  6
CONTINUOUS
 62
    7
370
   -1
100
AcDbSpline
210
0
220
0
230
0
 70
    8
 71
    3
 72
   19
 73
   15
 74
    0
 42
1e-07
 43
1e-07
 40
0
 40
0
 40
0
 40
0
 40
0.08333333333333333
 40
0.1666666666666667
 40
0.25
 40
0.3333333333333333
 40
0.4166666666666666
 40
0.5
 40
0.5833333333333333
 40
0.6666666666666666
 40
0.75
 40
0.8333333333333333
 40
0.9166666666666666
 40
1
 40
1
 40
1
 40
1
 10
-858.8215581923999
 20
751.7377003454
 30
0
 10
-873.9619718874
 20
752.4084363067
 30
0
 10
-904.1501998348
 20
753.9579072499
 30
0
 10
-949.2455391890001
 20
757.0200574455999
 30
0
 10
-993.964844714
 20
760.9142978704
 30
0
 10
-1030.9291352433
 20
764.9489679032
 30
0
 10
-1060.2238066891
 20
768.7036953642
 30
0
 10
-1081.9744006283
 20
771.7855979852
 30
0
 10
-1103.5418325793
 20
775.1543931164
 30
0
 10
-1124.9085803118
 20
778.8196893437
 30
0
 10
-1146.0553313134
 20
782.8139818911
 30
0
 10
-1166.9625145712
 20
787.1803874529
 30
0
 10
-1187.6079298825
 20
791.9801122388
 30
0
 10
-1201.2148527938
 20
795.599797963
 30
0
 10
-1207.9414442378
 20
797.5772248173
 30
0
  0
SPLINE
  5
23F
100
AcDbEntity
  8
0
  6
CONTINUOUS
 62
    7
370
   -1
100
AcDbSpline
210
0
220
0
230
0
 70
    8
 71
    3
 72
    9
 73
    5
 74
    0
 42
1e-07
 43
1e-07
 40
0
 40
0
 40
0
 40
0
 40
0.5
 40
1
 40
1
 40
1
 40
1
 10
-837.9335075206
 20
750.7928159564
 30
0
 10
-839.675369566
 20
750.8729731634
 30
0
 10
-846.6378569261
 20
751.1922500288
 30
0
 10
-853.6005836218
 20
751.5063308902
 30
0
 10
-858.8215582463999
 20
751.7376995594
 30
0
  0
SPLINE
  5
240
100
AcDbEntity
  8
0
  6
CONTINUOUS
 62
    7
370
   -1
100
AcDbSpline
210
0
220
0
230
0
 70
    8
 71
    3
 72
    9
 73
    5
 74
    0
 42
1e-07
 43
1e-07
 40
0
 40
0
 40
0
 40
0
 40
0.5
 40
1
 40
1
 40
1
 40
1
 10
-802.7790564927
 20
749.1493704602
 30
0
 10
-805.7109605915
 20
749.2875665575
 30
0
 10
-817.4289048211
 20
749.8397703698
 30
0
 10
-829.1470168557
 20
750.3884746966
 30
0
 10
-837.9335076821
 20
750.7928123587
 30
0
  0
SPLINE
  5
241
100
AcDbEntity
  8
0
  6
CONTINUOUS
 62
    7
370
   -1
100
AcDbSpline
210
0
220
0
230
0
 70
    8
 71
    3
 72
   14
 73
   10
 74
    0
 42
1e-07
 43
1e-07
 40
0
 40
0
 40
0
 40
0
 40
0.1428571428571428
 40
0.2857142857142857
 40
0.4285714285714285
 40
0.5714285714285714
 40
0.7142857142857142
 40
0.8571428571428571
 40
1
 40
1
 40
1
 40
1
 10
-520.3740156416
 20
749.5693937509
 30
0
 10
-532.1632506737
 20
749.1219852749
 30
0
 10
-555.7368485708
 20
748.3739479504
 30
0
 10
-591.0887165372
 20
747.6303363503999
 30
0
 10
-626.4074126402001
 20
747.1997057322
 30
0
 10
-661.6840078947999
 20
747.0434670043001
 30
0
 10
-696.9111008134
 20
747.1511222109
 30
0
 10
-743.7577834659
 20
747.6404818804
 30
0
 10
-778.8578731163
 20
748.4037013528
 30
0
 10
-802.2282634185
 20
749.1280128365
 30
0
  0
SPLINE
  5
242
100
AcDbEntity
  8
0
  6
CONTINUOUS
 62
    7
370
   -1
100
AcDbSpline
210
0
220
0
230
0
 70
    8
 71
    3
 72
   21
 73
   17
 74
    0
 42
1e-07
 43
1e-07
 40
0
 40
0
 40
0
 40
0
 40
0.07142857142857142
 40
0.1428571428571428
 40
0.2142857142857143
 40
0.2857142857142857
 40
0.3571428571428571
 40
0.4285714285714285
 40
0.5
 40
0.5714285714285714
 40
0.6428571428571428
 40
0.7142857142857142
 40
0.7857142857142857
 40
0.8571428571428571
 40
0.9285714285714285
 40
1
 40
1
 40
1
 40
1
 10
1312.3844350414
 20
394.138654539
 30
0
 10
1314.6662021866
 20
394.6575239499
 30
0
 10
1319.1931688498
 20
395.9866285192
 30
0
 10
1324.6320717366
 20
398.326819256
 30
0
 10
1328.8213385972
 20
400.6377805854
 30
0
 10
1331.8954142531
 20
402.6179827913
 30
0
 10
1334.874538016
 20
404.8462382286
 30
0
 10
1337.7458982019
 20
407.3359113935
 30
0
 10
1340.4832169061
 20
410.1140505549
 30
0
 10
1343.0624811348
 20
413.2046776676
 30
0
 10
1345.4377840606
 20
416.6503819807
 30
0
 10
1347.5633938374
 20
420.4861994212
 30
0
 10
1349.3606766396
 20
424.7597310343
 30
0
 10
1350.705090041
 20
429.5119310484
 30
0
 10
1351.4427755094
 20
434.7353366008
 30
0
 10
1351.3963848673
 20
438.3758812934
 30
0
 10
1351.2209140577
 20
440.2364120844
 30
0
  0
SPLINE
  5
243
100
AcDbEntity
  8
0
  6
CONTINUOUS
 62
    7
370
   -1
100
AcDbSpline
210
0
220
0
230
0
 70
    8
 71
    3
 72
   15
 73
   11
 74
    0
 42
1e-07
 43
1e-07
 40
0
 40
0
 40
0
 40
0
 40
0.125
 40
0.25
 40
0.375
 40
0.5
 40
0.625
 40
0.75
 40
0.875
 40
1
 40
1
 40
1
 40
1
 10
-269.4546011215
 20
781.0742678854
 30
0
 10
-279.0818215045
 20
779.1505189953
 30
0
 10
-298.3905943511
 20
775.580415622
 30
0
 10
-322.6194781668
 20
771.6726287348
 30
0
 10
-342.0364701835
 20
768.7927023957
 30
0
 10
-361.4682148547
 20
766.0564782629
 30
0
 10
-385.7859262843
 20
762.8927433936
 30
0
 10
-415.0009004552
 20
759.4483024251
 30
0
 10
-453.9735058955
 20
755.273827328
 30
0
 10
-483.2417311176
 20
752.5843582999
 30
0
 10
-502.7624100638
 20
750.959896153
 30
0
  0
SPLINE
  5
244
100
AcDbEntity
  8
0
  6
CONTINUOUS
 62
    7
370
   -1
100
AcDbSpline
210
0
220
0
230
0
 70
    8
 71
    3
 72
   24
 73
   20
 74
    0
 42
1e-07
 43
1e-07
 40
0
 40
0
 40
0
 40
0
 40
0.05882352941176471
 40
0.1176470588235294
 40
0.1764705882352941
 40
0.2352941176470588
 40
0.2941176470588235
 40
0.3529411764705882
 40
0.4117647058823529
 40
0.4705882352941176
 40
0.5294117647058824
 40
0.5882352941176471
 40
0.6470588235294118
 40
0.7058823529411764
 40
0.7647058823529411
 40
0.8235294117647058
 40
0.8823529411764706
 40
0.9411764705882353
 40
1
 40
1
 40
1
 40
1
 10
3.0905212126
 20
299.9870816661
 30
0
 10
3.1498152459
 20
299.9870816708
 30
0
 10
3.283795034
 20
300.030193106
 30
0
 10
3.4559352128
 20
300.1906050355
 30
0
 10
3.6233678578
 20
300.4379165978
 30
0
 10
3.7889582419
 20
300.7774455407
 30
0
 10
3.9534133947
 20
301.2100373778
 30
0
 10
4.1162251916
 20
301.735847689
 30
0
 10
4.2771522291
 20
302.353496778
 30
0
 10
4.5006862366
 20
303.3526410573
 30
0
 10
4.7645638431
 20
304.819592521
 30
0
 10
5.0532210216
 20
306.8315399666
 30
0
 10
5.3241813595
 20
309.162680807
 30
0
 10
5.574178542
 20
311.7916406539
 30
0
 10
5.8014140837
 20
314.6924614219
 30
0
 10
6.0793807314
 20
319.0170069041
 30
0
 10
6.3461934079
 20
324.8742756474
 30
0
 10
6.5377013007
 20
332.2831157632
 30
0
 10
6.5814262567
 20
337.387124719
 30
0
 10
6.5814278005
 20
339.9884547455
 30
0
  0
SPLINE
  5
245
100
AcDbEntity
  8
0
  6
CONTINUOUS
 62
    7
370
   -1
100
AcDbSpline
210
0
220
0
230
0
 70
    8
 71
    3
 72
   23
 73
   19
 74
    0
 42
1e-07
 43
1e-07
 40
0
 40
0
 40
0
 40
0
 40
0.0625
 40
0.125
 40
0.1875
 40
0.25
 40
0.3125
 40
0.375
 40
0.4375
 40
0.5
 40
0.5625
 40
0.625
 40
0.6875
 40
0.75
 40
0.8125
 40
0.875
 40
0.9375
 40
1
 40
1
 40
1
 40
1
 10
52.1414915017
 20
299.9870816661
 30
0
 10
52.2459623513
 20
299.9870816673
 30
0
 10
52.3634806767
 20
300.1267222272
 30
0
 10
52.4553815972
 20
300.2912774726
 30
0
 10
52.5437167064
 20
300.4824753866
 30
0
 10
52.6482812476
 20
300.7805685834
 30
0
 10
52.7673023956
 20
301.212456252
 30
0
 10
52.8849265549
 20
301.7374450108
 30
0
 10
53.0014367717
 20
302.3546502795
 30
0
 10
53.1635014122
 20
303.3546878029
 30
0
 10
53.3546346445
 20
304.8217811452
 30
0
 10
53.5636509316
 20
306.8328901138
 30
0
 10
53.759923804
 20
309.1634931355
 30
0
 10
54.013109669
 20
312.8418649016
 30
0
 10
54.2745088484
 20
318.0469749146
 30
0
 10
54.5003356282
 20
324.8755212021
 30
0
 10
54.6389019385
 20
332.2838925302
 30
0
 10
54.6706143807
 20
337.3874269312
 30
0
 10
54.6706143806
 20
339.9887221106
 30
0
  0
SPLINE
  5
246
100
AcDbEntity
  8
0
  6
CONTINUOUS
 62
    7
370
   -1
100
AcDbSpline
210
0
220
0
230
0
 70
    8
 71
    3
 72
   14
 73
   10
 74
    0
 42
1e-07
 43
1e-07
 40
0
 40
0
 40
0
 40
0
 40
0.1428571428571428
 40
0.2857142857142857
 40
0.4285714285714285
 40
0.5714285714285714
 40
0.7142857142857142
 40
0.8571428571428571
 40
1
 40
1
 40
1
 40
1
 10
1351.1450955865
 20
759.7800136181
 30
0
 10
1325.259958356
 20
765.7877093118
 30
0
 10
1273.1555352759
 20
777.1594700481
 30
0
 10
1167.2346954762
 20
797.5740338568
 30
0
 10
1059.1349291056
 20
814.5239502717
 30
0
 10
948.7026051823
 20
828.4110502709
 30
0
 10
863.3681880997
 20
837.5057068769
 30
0
 10
776.8281664112
 20
845.2236273532
 30
0
 10
718.7699870277
 20
849.4686070952999
 30
0
 10
689.6751394852
 20
851.3735318317
 30
0
  0
SPLINE
  5
247
100
AcDbEntity
  8
0
  6
CONTINUOUS
 62
    7
370
   -1
100
AcDbSpline
210
0
220
0
230
0
 70
    8
 71
    3
 72
   20
 73
   16
 74
    0
 42
1e-07
 43
1e-07
 40
0
 40
0
 40
0
 40
0
 40
0.07692307692307693
 40
0.1538461538461539
 40
0.2307692307692308
 40
0.3076923076923077
 40
0.3846153846153846
 40
0.4615384615384616
 40
0.5384615384615385
 40
0.6153846153846154
 40
0.6923076923076923
 40
0.7692307692307693
 40
0.8461538461538463
 40
0.9230769230769231
 40
1
 40
1
 40
1
 40
1
 10
-1285.0905006147
 20
817.7525317951
 30
0
 10
-1283.4199197408
 20
817.8341010555999
 30
0
 10
-1280.0721330448
 20
817.9276248376
 30
0
 10
-1275.0566665917
 20
817.7996872822
 30
0
 10
-1270.0658881934
 20
817.4571172733999
 30
0
 10
-1265.931720838
 20
817.0471951541
 30
0
 10
-1262.6391889997
 20
816.6774162479001
 30
0
 10
-1259.3556546328
 20
816.2913126307
 30
0
 10
-1255.2573885527
 20
815.7809552955
 30
0
 10
-1250.3445116984
 20
815.1328870536
 30
0
 10
-1245.4322674197
 20
814.4585040096
 30
0
 10
-1240.5150516142
 20
813.7666743227001
 30
0
 10
-1233.941023434
 20
812.8332948281
 30
0
 10
-1222.4099988217
 20
811.1803916516
 30
0
 10
-1212.5229189471
 20
809.7481050003
 30
0
 10
-1205.9273879867
 20
808.7972341023
 30
0
  0
SPLINE
  5
248
100
AcDbEntity
  8
0
  6
CONTINUOUS
 62
    7
370
   -1
100
AcDbSpline
210
0
220
0
230
0
 70
    8
 71
    3
 72
   14
 73
   10
 74
    0
 42
1e-07
 43
1e-07
 40
0
 40
0
 40
0
 40
0
 40
0.1428571428571428
 40
0.2857142857142857
 40
0.4285714285714285
 40
0.5714285714285714
 40
0.7142857142857142
 40
0.8571428571428571
 40
1
 40
1
 40
1
 40
1
 10
-860.5528118451
 20
785.8738187331001
 30
0
 10
-860.9204076692
 20
786.8366225115
 30
0
 10
-861.6063036944
 20
788.9474215003
 30
0
 10
-862.4712069242
 20
792.3830972745
 30
0
 10
-863.2287073134
 20
796.2667835853
 30
0
 10
-863.8673215595001
 20
800.5341938693
 30
0
 10
-864.3754803447
 20
805.1182638392
 30
0
 10
-864.8743574221
 20
811.6391294181
 30
0
 10
-865.0190260376
 20
816.6357450965
 30
0
 10
-865.0190260376
 20
820.0084071254
 30
0
  0
SPLINE
  5
249
100
AcDbEntity
  8
0
  6
CONTINUOUS
 62
    7
370
   -1
100
AcDbSpline
210
0
220
0
230
0
 70
    8
 71
    3
 72
   14
 73
   10
 74
    0
 42
1e-07
 43
1e-07
 40
0
 40
0
 40
0
 40
0
 40
0.1428571428571428
 40
0.2857142857142857
 40
0.4285714285714285
 40
0.5714285714285714
 40
0.7142857142857142
 40
0.8571428571428571
 40
1
 40
1
 40
1
 40
1
 10
689.6750822374
 20
348.6253686597
 30
0
 10
718.7974529912
 20
350.5321297115
 30
0
 10
776.903874933
 20
354.7808651064
 30
0
 10
863.5122644028
 20
362.5070042663
 30
0
 10
948.8878149036
 20
371.6091494871
 30
0
 10
1032.5029594441
 20
382.1283288244
 30
0
 10
1114.243052955
 20
394.1157501718
 30
0
 10
1220.5586373292
 20
412.0793947201
 30
0
 10
1299.2997299489
 20
428.1866762868
 30
0
 10
1351.2209140577
 20
440.2364120844
 30
0
  0
SPLINE
  5
24A
100
AcDbEntity
  8
0
  6
CONTINUOUS
 62
    7
370
   -1
100
AcDbSpline
210
0
220
0
230
0
 70
    8
 71
    3
 72
   13
 73
    9
 74
    0
 42
1e-07
 43
1e-07
 40
0
 40
0
 40
0
 40
0
 40
0.1666666666666667
 40
0.3333333333333333
 40
0.5
 40
0.6666666666666666
 40
0.8333333333333333
 40
1
 40
1
 40
1
 40
1
 10
-242.1418950158
 20
413.0122219087
 30
0
 10
-231.2823770683
 20
410.426337149
 30
0
 10
-209.58932447
 20
405.1526610371
 30
0
 10
-177.1219122161
 20
396.9789162467
 30
0
 10
-150.1219286567
 20
389.9829385019
 30
0
 10
-131.250394825
 20
385.0084448129
 30
0
 10
-120.4784488895
 20
382.1462155809
 30
0
 10
-115.095134012
 20
380.7110212866
 30
0
 10
-112.4047668269
 20
379.990222151
 30
0
  0
SPLINE
  5
24B
100
AcDbEntity
  8
0
  6
CONTINUOUS
 62
    7
370
   -1
100
AcDbSpline
210
0
220
0
230
0
 70
    8
 71
    3
 72
   15
 73
   11
 74
    0
 42
1e-07
 43
1e-07
 40
0
 40
0
 40
0
 40
0
 40
0.125
 40
0.25
 40
0.375
 40
0.5
 40
0.625
 40
0.75
 40
0.875
 40
1
 40
1
 40
1
 40
1
 10
-416.7385379193
 20
440.6918828688
 30
0
 10
-402.1000043337
 20
439.0559434178
 30
0
 10
-380.1575540297
 20
436.4366951053
 30
0
 10
-350.9548814004
 20
432.5066919215
 30
0
 10
-332.7265812667
 20
429.8453070906
 30
0
 10
-318.1617372699
 20
427.5796098613
 30
0
 10
-303.6079065672
 20
425.2189683306
 30
0
 10
-285.4470601008
 20
422.0624304799
 30
0
 10
-263.7292843861
 20
417.8544159944
 30
0
 10
-249.3211779032
 20
414.6962249788
 30
0
 10
-242.1473888422
 20
412.9890795696
 30
0
  0
SPLINE
  5
24C
100
AcDbEntity
  8
0
  6
CONTINUOUS
 62
    7
370
   -1
100
AcDbSpline
210
0
220
0
230
0
 70
    8
 71
    3
 72
   11
 73
    7
 74
    0
 42
1e-07
 43
1e-07
 40
0
 40
0
 40
0
 40
0
 40
0.25
 40
0.5
 40
0.75
 40
1
 40
1
 40
1
 40
1
 10
1351.1450955911
 20
759.7800136214
 30
0
 10
1352.2011819128
 20
759.9193783294
 30
0
 10
1354.1858924507
 20
760.1917220432
 30
0
 10
1356.9369933427
 20
760.6049847568
 30
0
 10
1359.2160316387
 20
760.9887159911
 30
0
 10
1360.5643475656
 20
761.2504180441
 30
0
 10
1361.1443945979
 20
761.3806621184
 30
0
  0
SPLINE
  5
24D
100
AcDbEntity
  8
0
  6
CONTINUOUS
 62
    7
370
   -1
100
AcDbSpline
210
0
220
0
230
0
 70
    8
 71
    3
 72
   13
 73
    9
 74
    0
 42
1e-07
 43
1e-07
 40
0
 40
0
 40
0
 40
0
 40
0.1666666666666667
 40
0.3333333333333333
 40
0.5
 40
0.6666666666666666
 40
0.8333333333333333
 40
1
 40
1
 40
1
 40
1
 10
1361.1443945979
 20
761.3806621184
 30
0
 10
1361.3609341613
 20
761.4292840291
 30
0
 10
1361.7414769785
 20
761.5196053024
 30
0
 10
1362.1807728117
 20
761.6423641923
 30
0
 10
1362.4500436967
 20
761.7359649368
 30
0
 10
1362.5926014186
 20
761.7953020028
 30
0
 10
1362.6939843017
 20
761.8495960997
 30
0
 10
1362.7454245161
 20
761.8900664034001
 30
0
 10
1362.7606837913
 20
761.9108772198
 30
0
  0
SPLINE
  5
24E
100
AcDbEntity
  8
0
  6
CONTINUOUS
 62
    7
370
   -1
100
AcDbSpline
210
0
220
0
230
0
 70
    8
 71
    3
 72
   11
 73
    7
 74
    0
 42
1e-07
 43
1e-07
 40
0
 40
0
 40
0
 40
0
 40
0.25
 40
0.5
 40
0.75
 40
1
 40
1
 40
1
 40
1
 10
-537.2842224165
 20
449.220239667
 30
0
 10
-527.2290415316
 20
448.8164293658
 30
0
 10
-507.1164529226
 20
447.8963657616
 30
0
 10
-476.9603192746
 20
446.0909062018
 30
0
 10
-446.8202949938
 20
443.7813471733
 30
0
 10
-426.7572787581
 20
441.8117382558
 30
0
 10
-416.7385380421
 20
440.6918825093
 30
0
  0
SPLINE
  5
24F
100
AcDbEntity
  8
0
  6
CONTINUOUS
 62
    7
370
   -1
100
AcDbSpline
210
0
220
0
230
0
 70
    8
 71
    3
 72
   18
 73
   14
 74
    0
 42
1e-07
 43
1e-07
 40
0
 40
0
 40
0
 40
0
 40
0.09090909090909091
 40
0.1818181818181818
 40
0.2727272727272727
 40
0.3636363636363636
 40
0.4545454545454546
 40
0.5454545454545454
 40
0.6363636363636364
 40
0.7272727272727273
 40
0.8181818181818182
 40
0.9090909090909092
 40
1
 40
1
 40
1
 40
1
 10
-1205.9273879866
 20
808.7972341022
 30
0
 10
-1199.2033933856
 20
807.8042741532
 30
0
 10
-1185.6448123498
 20
805.9924400786
 30
0
 10
-1165.1558970458
 20
803.595307003
 30
0
 10
-1144.4255156441
 20
801.4129319300999
 30
0
 10
-1123.484655203
 20
799.4160479175
 30
0
 10
-1102.3519158221
 20
797.5833908084001
 30
0
 10
-1073.8390606475
 20
795.3294469571
 30
0
 10
-1037.8095871861
 20
792.8756393072
 30
0
 10
-994.1511107589999
 20
790.4604879405
 30
0
 10
-949.9955707196
 20
788.5133374891
 30
0
 10
-905.4090145883
 20
786.9825032679
 30
0
 10
-875.5457097325
 20
786.2088475022
 30
0
 10
-860.5528118453
 20
785.8738187331001
 30
0
  0
SPLINE
  5
250
100
AcDbEntity
  8
0
  6
CONTINUOUS
 62
    7
370
   -1
100
AcDbSpline
210
0
220
0
230
0
 70
    8
 71
    3
 72
   14
 73
   10
 74
    0
 42
1e-07
 43
1e-07
 40
0
 40
0
 40
0
 40
0
 40
0.1428571428571428
 40
0.2857142857142857
 40
0.4285714285714285
 40
0.5714285714285714
 40
0.7142857142857142
 40
0.8571428571428571
 40
1
 40
1
 40
1
 40
1
 10
-831.9466500829
 20
449.23228594
 30
0
 10
-807.5428382852
 20
450.1168119841
 30
0
 10
-770.8772393974
 20
451.0751116149
 30
0
 10
-721.927334859
 20
451.7101732157
 30
0
 10
-685.0955212251999
 20
451.8922288962
 30
0
 10
-648.2034675479
 20
451.774672662
 30
0
 10
-611.2614657193
 20
451.3343781502
 30
0
 10
-574.2795512346
 20
450.5372252546
 30
0
 10
-549.6179709014
 20
449.7155559361
 30
0
 10
-537.2842224165
 20
449.220239667
 30
0
  0
SPLINE
  5
251
100
AcDbEntity
  8
0
  6
CONTINUOUS
 62
    7
370
   -1
100
AcDbSpline
210
0
220
0
230
0
 70
    8
 71
    3
 72
   21
 73
   17
 74
    0
 42
1e-07
 43
1e-07
 40
0
 40
0
 40
0
 40
0
 40
0.07142857142857142
 40
0.1428571428571428
 40
0.2142857142857143
 40
0.2857142857142857
 40
0.3571428571428571
 40
0.4285714285714285
 40
0.5
 40
0.5714285714285714
 40
0.6428571428571428
 40
0.7142857142857142
 40
0.7857142857142857
 40
0.8571428571428571
 40
0.9285714285714285
 40
1
 40
1
 40
1
 40
1
 10
-1208.6197451494
 20
402.2220389142
 30
0
 10
-1201.3841629723
 20
404.3502125491
 30
0
 10
-1190.419753469
 20
407.2466604929
 30
0
 10
-1175.6854578246
 20
410.7504405092
 30
0
 10
-1164.5308213535
 20
413.2416360073
 30
0
 10
-1153.3001203506
 20
415.60922942
 30
0
 10
-1138.199588386
 20
418.6269299198
 30
0
 10
-1119.1538865155
 20
422.1348325084
 30
0
 10
-1096.0979645961
 20
425.9672053544
 30
0
 10
-1072.817672894
 20
429.4642036121
 30
0
 10
-1049.3340940811
 20
432.6380122793
 30
0
 10
-1017.7020963745
 20
436.46987425
 30
0
 10
-977.7929188913999
 20
440.521694673
 30
0
 10
-929.5194775246
 20
444.3320466601
 30
0
 10
-880.8532839194
 20
447.2320270988
 30
0
 10
-848.2802779028
 20
448.6402702921
 30
0
 10
-831.9466500817
 20
449.2322859375
 30
0
  0
SPLINE
  5
252
100
AcDbEntity
  8
0
  6
CONTINUOUS
 62
    7
370
   -1
100
AcDbSpline
210
0
220
0
230
0
 70
    8
 71
    3
 72
   21
 73
   17
 74
    0
 42
1e-07
 43
1e-07
 40
0
 40
0
 40
0
 40
0
 40
0.07142857142857142
 40
0.1428571428571428
 40
0.2142857142857143
 40
0.2857142857142857
 40
0.3571428571428571
 40
0.4285714285714285
 40
0.5
 40
0.5714285714285714
 40
0.6428571428571428
 40
0.7142857142857142
 40
0.7857142857142857
 40
0.8571428571428571
 40
0.9285714285714285
 40
1
 40
1
 40
1
 40
1
 10
-1285.0580494258
 20
384.5197107849
 30
0
 10
-1283.4598965043
 20
384.3530678819
 30
0
 10
-1281.048555957
 20
384.2030990973
 30
0
 10
-1277.831670026
 20
384.2683433553
 30
0
 10
-1274.6159935609
 20
384.4992022588
 30
0
 10
-1270.6119380645
 20
385.0507920822
 30
0
 10
-1266.6459802736
 20
385.8486062762
 30
0
 10
-1263.4852552541
 20
386.5755252442
 30
0
 10
-1260.3244548583
 20
387.3424421509
 30
0
 10
-1256.3791329394
 20
388.3621249716
 30
0
 10
-1251.6487459105
 20
389.6518231709
 30
0
 10
-1245.3175766811
 20
391.4270346427
 30
0
 10
-1237.3812004444
 20
393.7289359822
 30
0
 10
-1227.8295207592
 20
396.5511838688
 30
0
 10
-1218.236284495
 20
399.3869221882
 30
0
 10
-1211.8279786515
 20
401.2781651817
 30
0
 10
-1208.619745967
 20
402.2220398425
 30
0
  0
SPLINE
  5
253
100
AcDbEntity
  8
0
  6
CONTINUOUS
 62
    7
370
   -1
100
AcDbSpline
210
0
220
0
230
0
 70
    8
 71
    3
 72
    8
 73
    4
 74
    0
 42
1e-07
 43
1e-07
 40
0
 40
0
 40
0
 40
0
 40
1
 40
1
 40
1
 40
1
 10
-860.5528117749
 20
785.8738185027
 30
0
 10
-853.5593920489
 20
785.7196273535
 30
0
 10
-846.5660560308
 20
785.5616234961
 30
0
 10
-839.5727755049001
 20
785.4012431292
 30
0
  0
SPLINE
  5
254
100
AcDbEntity
  8
0
  6
CONTINUOUS
 62
    7
370
   -1
100
AcDbSpline
210
0
220
0
230
0
 70
    8
 71
    3
 72
   27
 73
   23
 74
    0
 42
1e-07
 43
1e-07
 40
0
 40
0
 40
0
 40
0
 40
0.05
 40
0.1
 40
0.15
 40
0.2
 40
0.25
 40
0.3
 40
0.35
 40
0.4
 40
0.45
 40
0.5
 40
0.55
 40
0.6000000000000001
 40
0.65
 40
0.7000000000000001
 40
0.75
 40
0.8
 40
0.8500000000000001
 40
0.9
 40
0.9500000000000001
 40
1
 40
1
 40
1
 40
1
 10
-1389.3734931324
 20
393.5001746315
 30
0
 10
-1388.9942845307
 20
392.2161288995
 30
0
 10
-1388.0593351639
 20
389.7202792784
 30
0
 10
-1386.1696286453
 20
386.2429741583
 30
0
 10
-1383.8896398948
 20
383.0951677304
 30
0
 10
-1381.316456703
 20
380.2719061971
 30
0
 10
-1378.5263728484
 20
377.7452806325
 30
0
 10
-1374.6097774528
 20
374.7406700223
 30
0
 10
-1369.4029510871
 20
371.5383694058
 30
0
 10
-1362.8527881113
 20
368.3889197548
 30
0
 10
-1356.1206640469
 20
365.7961063287
 30
0
 10
-1349.2632956749
 20
363.6560383217
 30
0
 10
-1339.9994678774
 20
361.30403588
 30
0
 10
-1330.5890159638
 20
359.5811384516
 30
0
 10
-1321.1066876807
 20
358.3157669777
 30
0
 10
-1313.9505811131
 20
357.5587290511
 30
0
 10
-1307.964554416
 20
357.0510423147
 30
0
 10
-1303.1617578158
 20
356.6918886546
 30
0
 10
-1299.5497690965
 20
356.4354675514
 30
0
 10
-1295.9305419618
 20
356.1849572963
 30
0
 10
-1291.092323186
 20
355.8378580241
 30
0
 10
-1287.4643742329
 20
355.498863392
 30
0
 10
-1285.0545371961
 20
355.1859794749
 30
0
  0
SPLINE
  5
255
100
AcDbEntity
  8
0
  6
CONTINUOUS
 62
    7
370
   -1
100
AcDbSpline
210
0
220
0
230
0
 70
    8
 71
    3
 72
    9
 73
    5
 74
    0
 42
1e-07
 43
1e-07
 40
0
 40
0
 40
0
 40
0
 40
0.5
 40
1
 40
1
 40
1
 40
1
 10
-1389.3715295271
 20
806.5043855088001
 30
0
 10
-1389.9393025992
 20
806.7829030322
 30
0
 10
-1390.9848085133
 20
807.3179849525
 30
0
 10
-1392.0042293789
 20
807.902193788
 30
0
 10
-1392.4641740797
 20
808.1884834047
 30
0
  0
SPLINE
  5
256
100
AcDbEntity
  8
0
  6
CONTINUOUS
 62
    7
370
   -1
100
AcDbSpline
210
0
220
0
230
0
 70
    8
 71
    3
 72
   11
 73
    7
 74
    0
 42
1e-07
 43
1e-07
 40
0
 40
0
 40
0
 40
0
 40
0.25
 40
0.5
 40
0.75
 40
1
 40
1
 40
1
 40
1
 10
-421.1983698445
 20
410.3431665061
 30
0
 10
-420.7828679546
 20
412.418354632
 30
0
 10
-419.9688871663
 20
416.9522278758
 30
0
 10
-418.8425204563
 20
424.2176884641
 30
0
 10
-417.7536407058
 20
432.2554302682
 30
0
 10
-417.0909947421
 20
437.8381234003
 30
0
 10
-416.7751165416
 20
440.6959705063
 30
0
  0
SPLINE
  5
257
100
AcDbEntity
  8
0
  6
CONTINUOUS
 62
    7
370
   -1
100
AcDbSpline
210
0
220
0
230
0
 70
    8
 71
    3
 72
    9
 73
    5
 74
    0
 42
1e-07
 43
1e-07
 40
0
 40
0
 40
0
 40
0
 40
0.5
 40
1
 40
1
 40
1
 40
1
 10
-839.572775021
 20
785.4012415938
 30
0
 10
-830.7617997842
 20
785.1991751458
 30
0
 10
-819.0143399153
 20
784.9247687029
 30
0
 10
-807.2669300829
 20
784.6482705232
 30
0
 10
-804.3303727496
 20
784.579117316
 30
0
  0
SPLINE
  5
258
100
AcDbEntity
  8
0
  6
CONTINUOUS
 62
    7
370
   -1
100
AcDbSpline
210
0
220
0
230
0
 70
    8
 71
    3
 72
   17
 73
   13
 74
    0
 42
1e-07
 43
1e-07
 40
0
 40
0
 40
0
 40
0
 40
0.1
 40
0.2
 40
0.3
 40
0.4
 40
0.5
 40
0.6000000000000001
 40
0.7000000000000001
 40
0.8
 40
0.9
 40
1
 40
1
 40
1
 40
1
 10
-809.0151159498
 20
820.0084071254
 30
0
 10
-809.0151159499
 20
818.2021274352001
 30
0
 10
-808.9629887433
 20
814.6175095307
 30
0
 10
-808.7264743081
 20
809.3235469146
 30
0
 10
-808.3281668130001
 20
804.2258388141
 30
0
 10
-807.7936444519
 20
799.4218035559001
 30
0
 10
-807.2459950135
 20
795.6433934999
 30
0
 10
-806.7177941283001
 20
792.8359409604
 30
0
 10
-806.1587395059
 20
790.3435150875
 30
0
 10
-805.4878767889001
 20
788.0546423278
 30
0
 10
-804.7981691436
 20
785.9717666084
 30
0
 10
-804.4781962199
 20
785.0265073030999
 30
0
 10
-804.3303733276
 20
784.5791190129
 30
0
  0
SPLINE
  5
259
100
AcDbEntity
  8
0
  6
CONTINUOUS
 62
    7
370
   -1
100
AcDbSpline
210
0
220
0
230
0
 70
    8
 71
    3
 72
   12
 73
    8
 74
    0
 42
1e-07
 43
1e-07
 40
0
 40
0
 40
0
 40
0
 40
0.2
 40
0.4
 40
0.6000000000000001
 40
0.8
 40
1
 40
1
 40
1
 40
1
 10
-804.3258826031999
 20
784.5683559581
 30
0
 10
-781.076477318
 20
784.2055958075
 30
0
 10
-734.4380605529
 20
783.6968588535
 30
0
 10
-676.0705885936
 20
783.5002262934
 30
0
 10
-629.2168962411999
 20
783.6039901629
 30
0
 10
-582.2751140642
 20
783.8909290564
 30
0
 10
-547.0612191098
 20
784.3408937839999
 30
0
 10
-523.5882345029
 20
784.7888335185
 30
0
  0
SPLINE
  5
25A
100
AcDbEntity
  8
0
  6
CONTINUOUS
 62
    7
370
   -1
100
AcDbSpline
210
0
220
0
230
0
 70
    8
 71
    3
 72
   13
 73
    9
 74
    0
 42
1e-07
 43
1e-07
 40
0
 40
0
 40
0
 40
0
 40
0.1666666666666667
 40
0.3333333333333333
 40
0.5
 40
0.6666666666666666
 40
0.8333333333333333
 40
1
 40
1
 40
1
 40
1
 10
-831.9713556938
 20
449.2313903906
 30
0
 10
-831.8509027708
 20
445.7846510503
 30
0
 10
-831.7519051399
 20
439.1192154769
 30
0
 10
-831.9684314325
 20
431.0018659806
 30
0
 10
-832.3730864226
 20
425.0294983814
 30
0
 10
-832.7621229622
 20
421.1171705689
 30
0
 10
-833.2401772747
 20
417.6838967103
 30
0
 10
-833.6447278540001
 20
415.5722642515
 30
0
 10
-833.8700993789
 20
414.6108764483
 30
0
  0
SPLINE
  5
25B
100
AcDbEntity
  8
0
  6
CONTINUOUS
 62
    7
370
   -1
100
AcDbSpline
210
0
220
0
230
0
 70
    8
 71
    3
 72
   13
 73
    9
 74
    0
 42
1e-07
 43
1e-07
 40
0
 40
0
 40
0
 40
0
 40
0.1666666666666667
 40
0.3333333333333333
 40
0.5
 40
0.6666666666666666
 40
0.8333333333333333
 40
1
 40
1
 40
1
 40
1
 10
-523.5432849895
 20
786.347185375
 30
0
 10
-523.5467939546
 20
786.2147293021
 30
0
 10
-523.5533747457
 20
786.0175899616
 30
0
 10
-523.5590307778
 20
785.7566503524
 30
0
 10
-523.561913143
 20
785.5654177963
 30
0
 10
-523.5673434258
 20
785.3769090134
 30
0
 10
-523.5852395697
 20
785.1326903913
 30
0
 10
-523.5985467975
 20
784.9494089503
 30
0
 10
-523.5869541555001
 20
784.8295515215
 30
0
  0
LINE
  5
25C
100
AcDbEntity
  8
0
  6
CONTINUOUS
 62
    7
370
   -1
100
AcDbLine
 10
-523.5869635673999
 20
784.8296807274
 11
-507.3515480946
 21
785.4838480204
  0
SPLINE
  5
25D
100
AcDbEntity
  8
0
  6
CONTINUOUS
 62
    7
370
   -1
100
AcDbSpline
210
0
220
0
230
0
 70
    8
 71
    3
 72
   13
 73
    9
 74
    0
 42
1e-07
 43
1e-07
 40
0
 40
0
 40
0
 40
0
 40
0.1666666666666667
 40
0.3333333333333333
 40
0.5
 40
0.6666666666666666
 40
0.8333333333333333
 40
1
 40
1
 40
1
 40
1
 10
-507.3515386996
 20
785.483715132
 30
0
 10
-487.8066690252
 20
786.2953379921
 30
0
 10
-458.4991464124
 20
787.6391472512
 30
0
 10
-419.4455527823
 20
789.7270267484
 30
0
 10
-390.1838376915
 20
791.4487342722
 30
0
 10
-360.9543727985
 20
793.3474819945
 30
0
 10
-322.0839990686
 20
796.1445619862
 30
0
 10
-292.9784898733
 20
798.6105587007
 30
0
 10
-273.6227441431
 20
800.5402118643
 30
0
  0
SPLINE
  5
25E
100
AcDbEntity
  8
0
  6
CONTINUOUS
 62
    7
370
   -1
100
AcDbSpline
210
0
220
0
230
0
 70
    8
 71
    3
 72
   20
 73
   16
 74
    0
 42
1e-07
 43
1e-07
 40
0
 40
0
 40
0
 40
0
 40
0.07692307692307693
 40
0.1538461538461539
 40
0.2307692307692308
 40
0.3076923076923077
 40
0.3846153846153846
 40
0.4615384615384616
 40
0.5384615384615385
 40
0.6153846153846154
 40
0.6923076923076923
 40
0.7692307692307693
 40
0.8461538461538463
 40
0.9230769230769231
 40
1
 40
1
 40
1
 40
1
 10
-1206.6547419696
 20
853.0098227131
 30
0
 10
-1206.8508445997
 20
855.5227859827
 30
0
 10
-1207.0282826173
 20
860.4782051815
 30
0
 10
-1206.6974701667
 20
866.5917523736
 30
0
 10
-1206.0926431281
 20
871.2625720518
 30
0
 10
-1205.3075484675
 20
875.5321221031001
 30
0
 10
-1204.2180580788
 20
879.5188238937
 30
0
 10
-1202.7806778433
 20
883.1243525182
 30
0
 10
-1201.6080824327
 20
885.4748014567
 30
0
 10
-1200.3173093855
 20
887.535273911
 30
0
 10
-1198.9148861082
 20
889.2847982839
 30
0
 10
-1197.41138475
 20
890.7065991583
 30
0
 10
-1195.8197670576
 20
891.7894120165
 30
0
 10
-1194.1531882008
 20
892.5197307101
 30
0
 10
-1192.9934684938
 20
892.7629048456999
 30
0
 10
-1192.4189703647
 20
892.8193581919001
 30
0
  0
SPLINE
  5
25F
100
AcDbEntity
  8
0
  6
CONTINUOUS
 62
    7
370
   -1
100
AcDbSpline
210
0
220
0
230
0
 70
    8
 71
    3
 72
   13
 73
    9
 74
    0
 42
1e-07
 43
1e-07
 40
0
 40
0
 40
0
 40
0
 40
0.1666666666666667
 40
0.3333333333333333
 40
0.5
 40
0.6666666666666666
 40
0.8333333333333333
 40
1
 40
1
 40
1
 40
1
 10
-540.5008481468
 20
414.6053030032
 30
0
 10
-540.3082765702
 20
415.5700044018
 30
0
 10
-539.9403952245
 20
417.6836392184
 30
0
 10
-539.4497565169
 20
421.1136251101
 30
0
 10
-538.9829029743
 20
425.0234325665
 30
0
 10
-538.3824139270999
 20
430.9929847757
 30
0
 10
-537.7644835254
 20
439.1028012643
 30
0
 10
-537.4208463394
 20
445.7703848722
 30
0
 10
-537.2843178692
 20
449.2202435003
 30
0
  0
SPLINE
  5
260
100
AcDbEntity
  8
0
  6
CONTINUOUS
 62
    7
370
   -1
100
AcDbSpline
210
0
220
0
230
0
 70
    8
 71
    3
 72
   20
 73
   16
 74
    0
 42
1e-07
 43
1e-07
 40
0
 40
0
 40
0
 40
0
 40
0.07692307692307693
 40
0.1538461538461539
 40
0.2307692307692308
 40
0.3076923076923077
 40
0.3846153846153846
 40
0.4615384615384616
 40
0.5384615384615385
 40
0.6153846153846154
 40
0.6923076923076923
 40
0.7692307692307693
 40
0.8461538461538463
 40
0.9230769230769231
 40
1
 40
1
 40
1
 40
1
 10
-1193.1284779982
 20
307.2935222192
 30
0
 10
-1193.7027160427
 20
307.3503994755
 30
0
 10
-1194.8617899772
 20
307.5916304694
 30
0
 10
-1196.5291962461
 20
308.3186713389
 30
0
 10
-1198.1187237613
 20
309.4049764704
 30
0
 10
-1199.617785103
 20
310.8317858663
 30
0
 10
-1201.0185257661
 20
312.5814502896
 30
0
 10
-1202.310592182
 20
314.6385682866
 30
0
 10
-1203.482177791
 20
316.9875581933
 30
0
 10
-1204.5213316521
 20
319.609092773
 30
0
 10
-1205.4230244783
 20
322.4779554088
 30
0
 10
-1206.4557506073
 20
326.6949863716
 30
0
 10
-1207.3267214867
 20
332.4086219568
 30
0
 10
-1207.7061948577
 20
339.6331275789
 30
0
 10
-1207.53096736
 20
344.5883101713
 30
0
 10
-1207.3333628788
 20
347.1003756536
 30
0
  0
SPLINE
  5
261
100
AcDbEntity
  8
0
  6
CONTINUOUS
 62
    7
370
   -1
100
AcDbSpline
210
0
220
0
230
0
 70
    8
 71
    3
 72
    9
 73
    5
 74
    0
 42
1e-07
 43
1e-07
 40
0
 40
0
 40
0
 40
0
 40
0.5
 40
1
 40
1
 40
1
 40
1
 10
-1206.6191865332
 20
391.1017829743
 30
0
 10
-1206.8433222776
 20
392.9415892334
 30
0
 10
-1207.4176787305
 20
396.666785817
 30
0
 10
-1208.2013269509
 20
400.3532200194
 30
0
 10
-1208.649780633
 20
402.2132034426
 30
0
  0
SPLINE
  5
262
100
AcDbEntity
  8
0
  6
CONTINUOUS
 62
    7
370
   -1
100
AcDbSpline
210
0
220
0
230
0
 70
    8
 71
    3
 72
   10
 73
    6
 74
    0
 42
1e-07
 43
1e-07
 40
0
 40
0
 40
0
 40
0
 40
0.3333333333333333
 40
0.6666666666666666
 40
1
 40
1
 40
1
 40
1
 10
-523.4746562791
 20
890.7126226445999
 30
0
 10
-523.431684699
 20
888.6135791284
 30
0
 10
-523.3595375139
 20
884.0289687167
 30
0
 10
-523.2566097102
 20
873.7948117883
 30
0
 10
-523.2285027197
 20
865.6595712891
 30
0
 10
-523.2285026985001
 20
860.0100475564
 30
0
  0
SPLINE
  5
263
100
AcDbEntity
  8
0
  6
CONTINUOUS
 62
    7
370
   -1
100
AcDbSpline
210
0
220
0
230
0
 70
    8
 71
    3
 72
   23
 73
   19
 74
    0
 42
1e-07
 43
1e-07
 40
0
 40
0
 40
0
 40
0
 40
0.0625
 40
0.125
 40
0.1875
 40
0.25
 40
0.3125
 40
0.375
 40
0.4375
 40
0.5
 40
0.5625
 40
0.625
 40
0.6875
 40
0.75
 40
0.8125
 40
0.875
 40
0.9375
 40
1
 40
1
 40
1
 40
1
 10
569.0846004415
 20
604.4924948498
 30
0
 10
568.7656714059
 20
604.9910655713001
 30
0
 10
568.0178597072
 20
605.9285275094001
 30
0
 10
566.6334262885
 20
607.0850175764
 30
0
 10
565.0331452159
 20
607.9513211149
 30
0
 10
563.284899323
 20
608.4967606467
 30
0
 10
561.4574998615
 20
608.6963087284
 30
0
 10
559.6250969278
 20
608.5442400616
 30
0
 10
557.8610646284
 20
608.0458627606
 30
0
 10
556.2366024607001
 20
607.220791651
 30
0
 10
554.8175773578999
 20
606.1017170954
 30
0
 10
553.6621437276
 20
604.733193027
 30
0
 10
552.818492339
 20
603.1701881466
 30
0
 10
552.3219863208
 20
601.4764536572
 30
0
 10
552.1939541838
 20
599.7216634323
 30
0
 10
552.4396644585
 20
597.978217386
 30
0
 10
553.0481469888
 20
596.3188120737
 30
0
 10
553.6771581317
 20
595.3165979555999
 30
0
 10
554.039390951
 20
594.8522092167
 30
0
  0
SPLINE
  5
264
100
AcDbEntity
  8
0
  6
CONTINUOUS
 62
    7
370
   -1
100
AcDbSpline
210
0
220
0
230
0
 70
    8
 71
    3
 72
   26
 73
   22
 74
    0
 42
1e-07
 43
1e-07
 40
0
 40
0
 40
0
 40
0
 40
0.05263157894736842
 40
0.1052631578947368
 40
0.1578947368421053
 40
0.2105263157894737
 40
0.2631578947368421
 40
0.3157894736842105
 40
0.3684210526315789
 40
0.4210526315789473
 40
0.4736842105263158
 40
0.5263157894736842
 40
0.5789473684210527
 40
0.631578947368421
 40
0.6842105263157894
 40
0.7368421052631579
 40
0.7894736842105263
 40
0.8421052631578947
 40
0.8947368421052631
 40
0.9473684210526315
 40
1
 40
1
 40
1
 40
1
 10
569.0845430697
 20
604.4924580941999
 30
0
 10
569.8282041474999
 20
605.7204200607
 30
0
 10
571.1766099186
 20
608.2585814094
 30
0
 10
572.9458289882
 20
612.1798793217
 30
0
 10
574.5339688593
 20
616.1684145729
 30
0
 10
576.4603226942
 20
621.5260931513
 30
0
 10
578.1574302369
 20
626.9350805527999
 30
0
 10
579.714658235
 20
632.3505769969
 30
0
 10
581.1871374407
 20
637.7057120825
 30
0
 10
582.8986858253
 20
644.3325965236
 30
0
 10
584.7789189521
 20
652.1852469662
 30
0
 10
586.4878365799
 20
659.8619719937
 30
0
 10
588.0373987828
 20
667.3230248852
 30
0
 10
589.4443352047
 20
674.5296143184
 30
0
 10
590.7314044411
 20
681.4438495203
 30
0
 10
591.9029565319
 20
688.032733815
 30
0
 10
592.9375521237999
 20
694.2689279222
 30
0
 10
593.8472080807001
 20
700.1209892014
 30
0
 10
594.6426040453
 20
705.5601709721
 30
0
 10
595.3399480536
 20
710.5585196763
 30
0
 10
595.752644573
 20
713.7437410388
 30
0
 10
595.9341361929
 20
715.259687776
 30
0
  0
SPLINE
  5
265
100
AcDbEntity
  8
0
  6
CONTINUOUS
 62
    7
370
   -1
100
AcDbSpline
210
0
220
0
230
0
 70
    8
 71
    3
 72
   26
 73
   22
 74
    0
 42
1e-07
 43
1e-07
 40
0
 40
0
 40
0
 40
0
 40
0.05263157894736842
 40
0.1052631578947368
 40
0.1578947368421053
 40
0.2105263157894737
 40
0.2631578947368421
 40
0.3157894736842105
 40
0.3684210526315789
 40
0.4210526315789473
 40
0.4736842105263158
 40
0.5263157894736842
 40
0.5789473684210527
 40
0.631578947368421
 40
0.6842105263157894
 40
0.7368421052631579
 40
0.7894736842105263
 40
0.8421052631578947
 40
0.8947368421052631
 40
0.9473684210526315
 40
1
 40
1
 40
1
 40
1
 10
595.933950117
 20
484.7397489129
 30
0
 10
595.7524328682
 20
486.255653408
 30
0
 10
595.3391817304999
 20
489.4407218942
 30
0
 10
594.6412473541
 20
494.4388822433
 30
0
 10
593.8458839579
 20
499.8779898668
 30
0
 10
592.9363799782
 20
505.7300220174
 30
0
 10
591.9017292485
 20
511.9661559593
 30
0
 10
590.729886353
 20
518.5549320021
 30
0
 10
589.4428667987
 20
525.4691203548
 30
0
 10
588.0358460968
 20
532.6756395744
 30
0
 10
586.4862009729
 20
540.136620697
 30
0
 10
584.7772886334
 20
547.8132939387
 30
0
 10
582.8970812938001
 20
555.665899113
 30
0
 10
581.1856155716
 20
562.2927625854001
 30
0
 10
579.7133188845
 20
567.6479154293
 30
0
 10
578.1563008928
 20
573.063443233
 30
0
 10
576.4595573883
 20
578.4725117879
 30
0
 10
574.5337739539
 20
583.8303679339
 30
0
 10
572.9461386774
 20
587.8190819694
 30
0
 10
571.17699299
 20
591.7404236635
 30
0
 10
569.82808641
 20
594.2782851913
 30
0
 10
569.0845430698
 20
595.5063115374001
 30
0
  0
LINE
  5
266
100
AcDbEntity
  8
0
  6
CONTINUOUS
 62
    7
370
   -1
100
AcDbLine
 10
641.7084856118
 20
600.0006465502
 11
1405.0502634762
 21
599.9993848157
  0
SPLINE
  5
267
100
AcDbEntity
  8
0
  6
CONTINUOUS
 62
    7
370
   -1
100
AcDbSpline
210
0
220
0
230
0
 70
    8
 71
    3
 72
    9
 73
    5
 74
    0
 42
1e-07
 43
1e-07
 40
0
 40
0
 40
0
 40
0
 40
0.5
 40
1
 40
1
 40
1
 40
1
 10
-1392.4650671386
 20
391.8137204361
 30
0
 10
-1392.0056245384
 20
392.1004651798
 30
0
 10
-1390.9864415627
 20
392.6857894384
 30
0
 10
-1389.9408273921
 20
393.2213954289
 30
0
 10
-1389.3727330543
 20
393.5004335663
 30
0
  0
SPLINE
  5
268
100
AcDbEntity
  8
0
  6
CONTINUOUS
 62
    7
370
   -1
100
AcDbSpline
210
0
220
0
230
0
 70
    8
 71
    3
 72
   19
 73
   15
 74
    0
 42
1e-07
 43
1e-07
 40
0
 40
0
 40
0
 40
0
 40
0.08333333333333333
 40
0.1666666666666667
 40
0.25
 40
0.3333333333333333
 40
0.4166666666666666
 40
0.5
 40
0.5833333333333333
 40
0.6666666666666666
 40
0.75
 40
0.8333333333333333
 40
0.9166666666666666
 40
1
 40
1
 40
1
 40
1
 10
-1206.6191865313
 20
391.1017829746
 30
0
 10
-1209.8869660154
 20
390.630514683
 30
0
 10
-1216.4235471601
 20
389.6862043934
 30
0
 10
-1226.222677224
 20
388.271976029
 30
0
 10
-1236.0069371771
 20
386.8639700798
 30
0
 10
-1244.1475165872
 20
385.7164252693
 30
0
 10
-1250.6486535078
 20
384.831690592
 30
0
 10
-1255.5175031906
 20
384.1876174308
 30
0
 10
-1260.3914939822
 20
383.5774301288
 30
0
 10
-1265.2801523448
 20
383.0118846831
 30
0
 10
-1270.1955187023
 20
382.5304533574
 30
0
 10
-1275.1441184836
 20
382.1962631665
 30
0
 10
-1280.1160926874
 20
382.0709698837
 30
0
 10
-1283.4343891659
 20
382.1653419039
 30
0
 10
-1285.090501294
 20
382.2462361453
 30
0
  0
SPLINE
  5
269
100
AcDbEntity
  8
0
  6
CONTINUOUS
 62
    7
370
   -1
100
AcDbSpline
210
0
220
0
230
0
 70
    8
 71
    3
 72
   22
 73
   18
 74
    0
 42
1e-07
 43
1e-07
 40
0
 40
0
 40
0
 40
0
 40
0.06666666666666667
 40
0.1333333333333333
 40
0.2
 40
0.2666666666666667
 40
0.3333333333333333
 40
0.4
 40
0.4666666666666667
 40
0.5333333333333333
 40
0.6
 40
0.6666666666666666
 40
0.7333333333333333
 40
0.8
 40
0.8666666666666667
 40
0.9333333333333333
 40
1
 40
1
 40
1
 40
1
 10
-809.01510913
 20
860.010047586
 30
0
 10
-809.0151583685
 20
862.6112832826
 30
0
 10
-808.9065447953
 20
867.7214300659
 30
0
 10
-808.4241552096
 20
875.1378612396001
 30
0
 10
-807.755553704
 20
880.9964668088001
 30
0
 10
-807.0603096998
 20
885.3152559734
 30
0
 10
-806.4901923653
 20
888.2175830004001
 30
0
 10
-805.861168454
 20
890.8493092097
 30
0
 10
-805.1806042226
 20
893.1858459551
 30
0
 10
-804.4554645826
 20
895.2059575187
 30
0
 10
-803.6914908496
 20
896.8926680006
 30
0
 10
-802.8966638271
 20
898.2329721512
 30
0
 10
-802.172991321
 20
899.0983357994
 30
0
 10
-801.5750791357
 20
899.5797446211
 30
0
 10
-801.1450731576
 20
899.8268471556
 30
0
 10
-800.7105619375
 20
899.9774144143
 30
0
 10
-800.4157877803
 20
900.0116879653
 30
0
 10
-800.2723739628
 20
900.0116879653
 30
0
  0
SPLINE
  5
26A
100
AcDbEntity
  8
0
  6
CONTINUOUS
 62
    7
370
   -1
100
AcDbSpline
210
0
220
0
230
0
 70
    8
 71
    3
 72
   20
 73
   16
 74
    0
 42
1e-07
 43
1e-07
 40
0
 40
0
 40
0
 40
0
 40
0.07692307692307693
 40
0.1538461538461539
 40
0.2307692307692308
 40
0.3076923076923077
 40
0.3846153846153846
 40
0.4615384615384616
 40
0.5384615384615385
 40
0.6153846153846154
 40
0.6923076923076923
 40
0.7692307692307693
 40
0.8461538461538463
 40
0.9230769230769231
 40
1
 40
1
 40
1
 40
1
 10
-1065.9701121448
 20
859.918600362
 30
0
 10
-1066.0011963418
 20
862.512099327
 30
0
 10
-1065.8855148363
 20
867.6146417156
 30
0
 10
-1065.2823919523
 20
873.8858308382
 30
0
 10
-1064.5255072962
 20
878.6712207465
 30
0
 10
-1063.6421613692
 20
883.0180364419
 30
0
 10
-1062.5230311701
 20
887.0578968958999
 30
0
 10
-1061.1243382013
 20
890.7032892948
 30
0
 10
-1060.0228845476
 20
893.0480057113
 30
0
 10
-1058.8414132769
 20
895.081441986
 30
0
 10
-1057.5863787274
 20
896.7829783266
 30
0
 10
-1056.2665649655
 20
898.1369154917001
 30
0
 10
-1054.891027217
 20
899.1330337613
 30
0
 10
-1053.4675108888
 20
899.7564804459
 30
0
 10
-1052.4821824588
 20
899.9098452026
 30
0
 10
-1052.0051064508
 20
899.9164304826
 30
0
  0
SPLINE
  5
26B
100
AcDbEntity
  8
0
  6
CONTINUOUS
 62
    7
370
   -1
100
AcDbSpline
210
0
220
0
230
0
 70
    8
 71
    3
 72
    9
 73
    5
 74
    0
 42
1e-07
 43
1e-07
 40
0
 40
0
 40
0
 40
0
 40
0.5
 40
1
 40
1
 40
1
 40
1
 10
-1207.3333628779
 20
379.990362506
 30
0
 10
-1207.3333628779
 20
380.9279657323
 30
0
 10
-1207.2740438408
 20
384.6405519751
 30
0
 10
-1206.9801615403
 20
388.3500547232
 30
0
 10
-1206.6191865313
 20
391.1017829746
 30
0
  0
SPLINE
  5
26C
100
AcDbEntity
  8
0
  6
CONTINUOUS
 62
    7
370
   -1
100
AcDbSpline
210
0
220
0
230
0
 70
    8
 71
    3
 72
    8
 73
    4
 74
    0
 42
1e-07
 43
1e-07
 40
0
 40
0
 40
0
 40
0
 40
1
 40
1
 40
1
 40
1
 10
-1390.7506177291
 20
398.1682479349
 30
0
 10
-1392.1568863365
 20
402.9365972908
 30
0
 10
-1393.5603325276
 20
407.7057797536
 30
0
 10
-1394.9612455579
 20
412.4757052937
 30
0
  0
SPLINE
  5
26D
100
AcDbEntity
  8
0
  6
CONTINUOUS
 62
    7
370
   -1
100
AcDbSpline
210
0
220
0
230
0
 70
    8
 71
    3
 72
   20
 73
   16
 74
    0
 42
1e-07
 43
1e-07
 40
0
 40
0
 40
0
 40
0
 40
0.07692307692307693
 40
0.1538461538461539
 40
0.2307692307692308
 40
0.3076923076923077
 40
0.3846153846153846
 40
0.4615384615384616
 40
0.5384615384615385
 40
0.6153846153846154
 40
0.6923076923076923
 40
0.7692307692307693
 40
0.8461538461538463
 40
0.9230769230769231
 40
1
 40
1
 40
1
 40
1
 10
-1052.3685404568
 20
860.0100475454
 30
0
 10
-1052.3685404568
 20
862.612992806
 30
0
 10
-1052.1947437924
 20
867.7329173029
 30
0
 10
-1051.5287694918
 20
874.0215543065
 30
0
 10
-1050.7293574675
 20
878.8192160627
 30
0
 10
-1049.8112432399
 20
883.1746471243
 30
0
 10
-1048.665805015
 20
887.2197141765
 30
0
 10
-1047.2500549131
 20
890.8676766732
 30
0
 10
-1046.1421784311
 20
893.2104434399999
 30
0
 10
-1044.9599151039
 20
895.2392343088
 30
0
 10
-1043.7098821684
 20
896.9334308913
 30
0
 10
-1042.4008300195
 20
898.277488767
 30
0
 10
-1041.0414669027
 20
899.2614321125
 30
0
 10
-1039.6388303871
 20
899.8703889874
 30
0
 10
-1038.6697870929
 20
900.0116879653
 30
0
 10
-1038.2024362567
 20
900.0116879653
 30
0
  0
SPLINE
  5
26E
100
AcDbEntity
  8
0
  6
CONTINUOUS
 62
    7
370
   -1
100
AcDbSpline
210
0
220
0
230
0
 70
    8
 71
    3
 72
   22
 73
   18
 74
    0
 42
1e-07
 43
1e-07
 40
0
 40
0
 40
0
 40
0
 40
0.06666666666666667
 40
0.1333333333333333
 40
0.2
 40
0.2666666666666667
 40
0.3333333333333333
 40
0.4
 40
0.4666666666666667
 40
0.5333333333333333
 40
0.6
 40
0.6666666666666666
 40
0.7333333333333333
 40
0.8
 40
0.8666666666666667
 40
0.9333333333333333
 40
1
 40
1
 40
1
 40
1
 10
-865.0190260376
 20
860.0100475454
 30
0
 10
-865.0190260376
 20
862.6112194988
 30
0
 10
-864.9034413763
 20
867.7216448413
 30
0
 10
-864.3891097642
 20
875.1381504589
 30
0
 10
-863.6755138656
 20
880.9957511227
 30
0
 10
-862.9340056878
 20
885.3132040535
 30
0
 10
-862.3254617673
 20
888.2160091356
 30
0
 10
-861.653935267
 20
890.8485068719
 30
0
 10
-860.9273585902999
 20
893.1861735759001
 30
0
 10
-860.1525819842
 20
895.2076881659
 30
0
 10
-859.335935526
 20
896.896009585
 30
0
 10
-858.4856350623
 20
898.2382690786
 30
0
 10
-857.7130661026
 20
899.1015060718
 30
0
 10
-857.0771762502
 20
899.5807843803
 30
0
 10
-856.6181371534
 20
899.8275831383
 30
0
 10
-856.1546486017
 20
899.9776541367
 30
0
 10
-855.840920852
 20
900.0116879653
 30
0
 10
-855.6877480159
 20
900.0116879653
 30
0
  0
SPLINE
  5
26F
100
AcDbEntity
  8
0
  6
CONTINUOUS
 62
    7
370
   -1
100
AcDbSpline
210
0
220
0
230
0
 70
    8
 71
    3
 72
   10
 73
    6
 74
    0
 42
1e-07
 43
1e-07
 40
0
 40
0
 40
0
 40
0
 40
0.3333333333333333
 40
0.6666666666666666
 40
1
 40
1
 40
1
 40
1
 10
-1065.9701121437
 20
859.918600362
 30
0
 10
-1077.9003463153
 20
859.7581720964
 30
0
 10
-1101.6365389538
 20
859.2701625814
 30
0
 10
-1148.566107019
 20
857.5322493605
 30
0
 10
-1183.5384524616
 20
855.2223711866
 30
0
 10
-1206.6547136901
 20
853.0094603607
 30
0
  0
LINE
  5
270
100
AcDbEntity
  8
0
  6
CONTINUOUS
 62
    7
370
   -1
100
AcDbLine
 10
-1390.7506177291
 20
398.1682479349
 11
-1390.2766837277
 21
396.5633860267
  0
LINE
  5
271
100
AcDbEntity
  8
0
  6
CONTINUOUS
 62
    7
370
   -1
100
AcDbLine
 10
-1390.2766837277
 20
396.5633860267
 11
-1389.5965588254
 21
394.258898557
  0
LINE
  5
272
100
AcDbEntity
  8
0
  6
CONTINUOUS
 62
    7
370
   -1
100
AcDbLine
 10
-1389.5965588254
 20
394.258898557
 11
-1389.3725961473
 21
393.5004578229
  0
SPLINE
  5
273
100
AcDbEntity
  8
0
  6
CONTINUOUS
 62
    7
370
   -1
100
AcDbSpline
210
0
220
0
230
0
 70
    8
 71
    3
 72
   18
 73
   14
 74
    0
 42
1e-07
 43
1e-07
 40
0
 40
0
 40
0
 40
0
 40
0.09090909090909091
 40
0.1818181818181818
 40
0.2727272727272727
 40
0.3636363636363636
 40
0.4545454545454546
 40
0.5454545454545454
 40
0.6363636363636364
 40
0.7272727272727273
 40
0.8181818181818182
 40
0.9090909090909092
 40
1
 40
1
 40
1
 40
1
 10
689.9147381172
 20
319.5246990145
 30
0
 10
689.8541642529
 20
318.7186080502
 30
0
 10
689.7211214172
 20
317.1975379568
 30
0
 10
689.4644450741
 20
315.0617042271
 30
0
 10
689.1659409998
 20
313.2155138538
 30
0
 10
688.8289841132
 20
311.6724132303
 30
0
 10
688.5029355667
 20
310.5868763169
 30
0
 10
688.2136892168
 20
309.8872870912
 30
0
 10
688.0025415249
 20
309.4803505111
 30
0
 10
687.783288387
 20
309.1573992802
 30
0
 10
687.5534640332
 20
308.9189236995
 30
0
 10
687.3108315258
 20
308.7665847328
 30
0
 10
687.1385074106
 20
308.7207661922
 30
0
 10
687.0557779901
 20
308.7122040696
 30
0
  0
SPLINE
  5
274
100
AcDbEntity
  8
0
  6
CONTINUOUS
 62
    7
370
   -1
100
AcDbSpline
210
0
220
0
230
0
 70
    8
 71
    3
 72
   11
 73
    7
 74
    0
 42
1e-07
 43
1e-07
 40
0
 40
0
 40
0
 40
0
 40
0.25
 40
0.5
 40
0.75
 40
1
 40
1
 40
1
 40
1
 10
-421.1983698483
 20
410.3431665064
 30
0
 10
-421.0670967357
 20
408.2554790723
 30
0
 10
-420.84655351
 20
403.7064129462
 30
0
 10
-420.6185750595
 20
396.4363397256
 30
0
 10
-420.4775133583
 20
388.407110607
 30
0
 10
-420.4455709553
 20
382.8389754721
 30
0
 10
-420.4455709553
 20
379.990362506
 30
0
  0
SPLINE
  5
275
100
AcDbEntity
  8
0
  6
CONTINUOUS
 62
    7
370
   -1
100
AcDbSpline
210
0
220
0
230
0
 70
    8
 71
    3
 72
   14
 73
   10
 74
    0
 42
1e-07
 43
1e-07
 40
0
 40
0
 40
0
 40
0
 40
0.1428571428571428
 40
0.2857142857142857
 40
0.4285714285714285
 40
0.5714285714285714
 40
0.7142857142857142
 40
0.8571428571428571
 40
1
 40
1
 40
1
 40
1
 10
-246.2671198675
 20
396.4926297969
 30
0
 10
-253.4773595089
 20
397.3483392813
 30
0
 10
-267.940093006
 20
398.9290186139
 30
0
 10
-289.6924301548
 20
401.0315442899
 30
0
 10
-311.5198503045
 20
402.923729887
 30
0
 10
-333.3973787621
 20
404.6545624369
 30
0
 10
-355.3105210939
 20
406.2517641852
 30
0
 10
-384.575962904
 20
408.2170939357
 30
0
 10
-406.544575474
 20
409.5258341454
 30
0
 10
-421.1983698483
 20
410.3431665064
 30
0
  0
SPLINE
  5
276
100
AcDbEntity
  8
0
  6
CONTINUOUS
 62
    7
370
   -1
100
AcDbSpline
210
0
220
0
230
0
 70
    8
 71
    3
 72
   18
 73
   14
 74
    0
 42
1e-07
 43
1e-07
 40
0
 40
0
 40
0
 40
0
 40
0.09090909090909091
 40
0.1818181818181818
 40
0.2727272727272727
 40
0.3636363636363636
 40
0.4545454545454546
 40
0.5454545454545454
 40
0.6363636363636364
 40
0.7272727272727273
 40
0.8181818181818182
 40
0.9090909090909092
 40
1
 40
1
 40
1
 40
1
 10
-833.870099374
 20
414.6108764484
 30
0
 10
-850.0638768502
 20
414.3151669053
 30
0
 10
-882.3199973503
 20
413.6122519978
 30
0
 10
-930.4783297147
 20
412.1625051566
 30
0
 10
-978.1692031816
 20
410.2575583587
 30
0
 10
-1025.3160413928
 20
407.8323622196
 30
0
 10
-1064.2175432609
 20
405.3172919164
 30
0
 10
-1094.9932171385
 20
402.9771364119
 30
0
 10
-1117.7919572004
 20
401.0610183054
 30
0
 10
-1140.3739043917
 20
398.9602654901
 30
0
 10
-1162.716675211
 20
396.652725301
 30
0
 10
-1184.7848964644
 20
394.1070007606
 30
0
 10
-1199.3831451582
 20
392.1707359575
 30
0
 10
-1206.6191865312
 20
391.1017829746
 30
0
  0
LINE
  5
277
100
AcDbEntity
  8
0
  6
CONTINUOUS
 62
    7
370
   -1
100
AcDbLine
 10
-1389.5828906033
 20
805.7885504205
 11
-1390.4895162703
 21
802.7109993872
  0
SPLINE
  5
278
100
AcDbEntity
  8
0
  6
CONTINUOUS
 62
    7
370
   -1
100
AcDbSpline
210
0
220
0
230
0
 70
    8
 71
    3
 72
    8
 73
    4
 74
    0
 42
1e-07
 43
1e-07
 40
0
 40
0
 40
0
 40
0
 40
1
 40
1
 40
1
 40
1
 10
-1390.4895162703
 20
802.7109993872
 30
0
 10
-1391.0910792258
 20
800.6683434399999
 30
0
 10
-1391.692171751
 20
798.6255488587
 30
0
 10
-1392.2926713023
 20
796.5825800394
 30
0
  0
SPLINE
  5
279
100
AcDbEntity
  8
0
  6
CONTINUOUS
 62
    7
370
   -1
100
AcDbSpline
210
0
220
0
230
0
 70
    8
 71
    3
 72
    8
 73
    4
 74
    0
 42
1e-07
 43
1e-07
 40
0
 40
0
 40
0
 40
0
 40
1
 40
1
 40
1
 40
1
 10
-1392.2926713023
 20
796.5825800394
 30
0
 10
-1393.1832666201
 20
793.5526719219
 30
0
 10
-1394.0727975802
 20
790.5224507038
 30
0
 10
-1394.9611480031
 20
787.491883637
 30
0
  0
SPLINE
  5
27A
100
AcDbEntity
  8
0
  6
CONTINUOUS
 62
    7
370
   -1
100
AcDbSpline
210
0
220
0
230
0
 70
    8
 71
    3
 72
   11
 73
    7
 74
    0
 42
1e-07
 43
1e-07
 40
0
 40
0
 40
0
 40
0
 40
0.25
 40
0.5
 40
0.75
 40
1
 40
1
 40
1
 40
1
 10
-1206.6547419671
 20
853.0098227133
 30
0
 10
-1213.2443653346
 20
852.3622894181
 30
0
 10
-1226.4047940921
 20
850.9482576944
 30
0
 10
-1246.0785728401
 20
848.4101270031
 30
0
 10
-1265.6665221484
 20
845.3770455661
 30
0
 10
-1278.6508475281
 20
842.9538875277
 30
0
 10
-1285.1193360241
 20
841.6158964433999
 30
0
  0
SPLINE
  5
27B
100
AcDbEntity
  8
0
  6
CONTINUOUS
 62
    7
370
   -1
100
AcDbSpline
210
0
220
0
230
0
 70
    8
 71
    3
 72
   28
 73
   24
 74
    0
 42
1e-07
 43
1e-07
 40
0
 40
0
 40
0
 40
0
 40
0.04761904761904762
 40
0.09523809523809523
 40
0.1428571428571428
 40
0.1904761904761905
 40
0.2380952380952381
 40
0.2857142857142857
 40
0.3333333333333333
 40
0.3809523809523809
 40
0.4285714285714285
 40
0.4761904761904762
 40
0.5238095238095237
 40
0.5714285714285714
 40
0.6190476190476191
 40
0.6666666666666666
 40
0.7142857142857142
 40
0.7619047619047619
 40
0.8095238095238095
 40
0.8571428571428571
 40
0.9047619047619047
 40
0.9523809523809523
 40
1
 40
1
 40
1
 40
1
 10
-1285.0545371961
 20
844.8645148771
 30
0
 10
-1287.4649252509
 20
844.5537964775
 30
0
 10
-1291.0910725813
 20
844.1978495667
 30
0
 10
-1295.9277970706
 20
843.824604417
 30
0
 10
-1299.5463789171
 20
843.5634385871
 30
0
 10
-1303.1582805766
 20
843.3040485712
 30
0
 10
-1306.7632410727
 20
843.0350311083
 30
0
 10
-1310.360835315
 20
842.74312221
 30
0
 10
-1315.1438444829
 20
842.3094599168001
 30
0
 10
-1321.1031507678
 20
841.6733671021
 30
0
 10
-1330.5850659284
 20
840.4028611201001
 30
0
 10
-1339.9953703978
 20
838.6792487551
 30
0
 10
-1349.2602907865
 20
836.3318282586
 30
0
 10
-1356.1190200249
 20
834.1974893931
 30
0
 10
-1362.8538021832
 20
831.612928248
 30
0
 10
-1369.4059408833
 20
828.4692228754
 30
0
 10
-1374.6162874096
 20
825.273090607
 30
0
 10
-1378.5322799454
 20
822.2677235264
 30
0
 10
-1381.3216314232
 20
819.7399974026
 30
0
 10
-1383.8937696387
 20
816.9152484012
 30
0
 10
-1386.171240234
 20
813.765048308
 30
0
 10
-1388.058818674
 20
810.2859165811
 30
0
 10
-1388.9919428276
 20
807.7889065167
 30
0
 10
-1389.3704472078
 20
806.5043855082999
 30
0
  0
SPLINE
  5
27C
100
AcDbEntity
  8
0
  6
CONTINUOUS
 62
    7
370
   -1
100
AcDbSpline
210
0
220
0
230
0
 70
    8
 71
    3
 72
    9
 73
    5
 74
    0
 42
1e-07
 43
1e-07
 40
0
 40
0
 40
0
 40
0
 40
0.5
 40
1
 40
1
 40
1
 40
1
 10
-1207.971498188
 20
797.5860610797
 30
0
 10
-1207.5189059164
 20
799.4630282381
 30
0
 10
-1206.7289307898
 20
803.1824767526
 30
0
 10
-1206.1517609693
 20
806.9412610999
 30
0
 10
-1205.9273879887
 20
808.7972341025001
 30
0
  0
SPLINE
  5
27D
100
AcDbEntity
  8
0
  6
CONTINUOUS
 62
    7
370
   -1
100
AcDbSpline
210
0
220
0
230
0
 70
    8
 71
    3
 72
   14
 73
   10
 74
    0
 42
1e-07
 43
1e-07
 40
0
 40
0
 40
0
 40
0
 40
0.1428571428571428
 40
0.2857142857142857
 40
0.4285714285714285
 40
0.5714285714285714
 40
0.7142857142857142
 40
0.8571428571428571
 40
1
 40
1
 40
1
 40
1
 10
-858.8560903681
 20
751.7392303410001
 30
0
 10
-858.7127006557
 20
755.1090369077
 30
0
 10
-858.6022894156
 20
760.1000608354
 30
0
 10
-858.676396759
 20
766.6272193425
 30
0
 10
-858.8391693743999
 20
771.2107639657
 30
0
 10
-859.1073265053
 20
775.475778759
 30
0
 10
-859.4765804099
 20
779.3537415367
 30
0
 10
-859.9379788519
 20
782.7826457939
 30
0
 10
-860.3322544156
 20
784.90263722
 30
0
 10
-860.5528118521
 20
785.8738187332
 30
0
  0
SPLINE
  5
27E
100
AcDbEntity
  8
0
  6
CONTINUOUS
 62
    7
370
   -1
100
AcDbSpline
210
0
220
0
230
0
 70
    8
 71
    3
 72
   14
 73
   10
 74
    0
 42
1e-07
 43
1e-07
 40
0
 40
0
 40
0
 40
0
 40
0.1428571428571428
 40
0.2857142857142857
 40
0.4285714285714285
 40
0.5714285714285714
 40
0.7142857142857142
 40
0.8571428571428571
 40
1
 40
1
 40
1
 40
1
 10
-802.7887332943
 20
749.1498265788
 30
0
 10
-802.6253927017
 20
752.7314870487
 30
0
 10
-802.4865096001
 20
758.0262180298
 30
0
 10
-802.5275950837
 20
764.9332109383
 30
0
 10
-802.6689561468
 20
769.7381613908
 30
0
 10
-802.9186591254
 20
774.1613490027
 30
0
 10
-803.2719837242
 20
778.1226106395
 30
0
 10
-803.7188410972
 20
781.5502931004
 30
0
 10
-804.1085350997
 20
783.6399791231
 30
0
 10
-804.3303729399
 20
784.5791173204
 30
0
  0
SPLINE
  5
27F
100
AcDbEntity
  8
0
  6
CONTINUOUS
 62
    7
370
   -1
100
AcDbSpline
210
0
220
0
230
0
 70
    8
 71
    3
 72
   14
 73
   10
 74
    0
 42
1e-07
 43
1e-07
 40
0
 40
0
 40
0
 40
0
 40
0.1428571428571428
 40
0.2857142857142857
 40
0.4285714285714285
 40
0.5714285714285714
 40
0.7142857142857142
 40
0.8571428571428571
 40
1
 40
1
 40
1
 40
1
 10
-839.5727751832
 20
785.4012415976
 30
0
 10
-839.3531593327
 20
784.4395490906001
 30
0
 10
-838.9630738276001
 20
782.3271200327
 30
0
 10
-838.5105145461
 20
778.894585138
 30
0
 10
-838.1507117837
 20
774.9842122212
 30
0
 10
-837.8929301055
 20
770.6613839079999
 30
0
 10
-837.7415566506
 20
765.9985769620999
 30
0
 10
-837.6842328771
 20
759.3368565994
 30
0
 10
-837.8082838109
 20
754.2385797644999
 30
0
 10
-837.9609555381001
 20
750.7940754339
 30
0
  0
SPLINE
  5
280
100
AcDbEntity
  8
0
  6
CONTINUOUS
 62
    7
370
   -1
100
AcDbSpline
210
0
220
0
230
0
 70
    8
 71
    3
 72
   14
 73
   10
 74
    0
 42
1e-07
 43
1e-07
 40
0
 40
0
 40
0
 40
0
 40
0.1428571428571428
 40
0.2857142857142857
 40
0.4285714285714285
 40
0.5714285714285714
 40
0.7142857142857142
 40
0.8571428571428571
 40
1
 40
1
 40
1
 40
1
 10
-802.2376825493
 20
749.1283047725
 30
0
 10
-802.1302150357
 20
752.7116737609
 30
0
 10
-802.075102022
 20
758.0084723701
 30
0
 10
-802.2219312188
 20
764.915524701
 30
0
 10
-802.4376712091
 20
769.7219169019
 30
0
 10
-802.7560250958001
 20
774.1474484335
 30
0
 10
-803.1687285931
 20
778.1122969595
 30
0
 10
-803.6697832436
 20
781.5434473881
 30
0
 10
-804.0923066911
 20
783.6340957249
 30
0
 10
-804.3281281405
 20
784.5737409037999
 30
0
  0
SPLINE
  5
281
100
AcDbEntity
  8
0
  6
CONTINUOUS
 62
    7
370
   -1
100
AcDbSpline
210
0
220
0
230
0
 70
    8
 71
    3
 72
   14
 73
   10
 74
    0
 42
1e-07
 43
1e-07
 40
0
 40
0
 40
0
 40
0
 40
0.1428571428571428
 40
0.2857142857142857
 40
0.4285714285714285
 40
0.5714285714285714
 40
0.7142857142857142
 40
0.8571428571428571
 40
1
 40
1
 40
1
 40
1
 10
-520.377542364
 20
749.5692599119
 30
0
 10
-520.5103642777
 20
753.1186665097
 30
0
 10
-520.7681834005
 20
758.3623397535
 30
0
 10
-521.2370346848001
 20
765.1998769942001
 30
0
 10
-521.6313019483
 20
769.9665620091999
 30
0
 10
-522.0663044892
 20
774.3628753261
 30
0
 10
-522.5341309549
 20
778.3104915242
 30
0
 10
-523.0243118502
 20
781.7392600451
 30
0
 10
-523.3937026112
 20
783.8389033687999
 30
0
 10
-523.5882344947
 20
784.7888335186
 30
0
  0
SPLINE
  5
282
100
AcDbEntity
  8
0
  6
CONTINUOUS
 62
    7
370
   -1
100
AcDbSpline
210
0
220
0
230
0
 70
    8
 71
    3
 72
   13
 73
    9
 74
    0
 42
1e-07
 43
1e-07
 40
0
 40
0
 40
0
 40
0
 40
0.1666666666666667
 40
0.3333333333333333
 40
0.5
 40
0.6666666666666666
 40
0.8333333333333333
 40
1
 40
1
 40
1
 40
1
 10
-518.9760601718
 20
749.6506959176
 30
0
 10
-519.2501143085
 20
753.2005594820999
 30
0
 10
-519.8607973053
 20
760.0461932574
 30
0
 10
-520.8071922356
 20
768.3526669213001
 30
0
 10
-521.6516972669
 20
774.4309967974
 30
0
 10
-522.2745663296
 20
778.3690311962
 30
0
 10
-522.9025135532
 20
781.782389803
 30
0
 10
-523.3562853749
 20
783.8666661255
 30
0
 10
-523.5875943292
 20
784.80919252
 30
0
  0
SPLINE
  5
283
100
AcDbEntity
  8
0
  6
CONTINUOUS
 62
    7
370
   -1
100
AcDbSpline
210
0
220
0
230
0
 70
    8
 71
    3
 72
   21
 73
   17
 74
    0
 42
1e-07
 43
1e-07
 40
0
 40
0
 40
0
 40
0
 40
0.07142857142857142
 40
0.1428571428571428
 40
0.2142857142857143
 40
0.2857142857142857
 40
0.3571428571428571
 40
0.4285714285714285
 40
0.5
 40
0.5714285714285714
 40
0.6428571428571428
 40
0.7142857142857142
 40
0.7857142857142857
 40
0.8571428571428571
 40
0.9285714285714285
 40
1
 40
1
 40
1
 40
1
 10
568.1062258237999
 20
302.0593962159
 30
0
 10
568.1421941699
 20
302.0610347888
 30
0
 10
568.2171736849
 20
302.0768056904
 30
0
 10
568.3238201361
 20
302.1347770397
 30
0
 10
568.4270099985
 20
302.2252547183
 30
0
 10
568.5715989796
 20
302.4016670167
 30
0
 10
568.7407993962
 20
302.7109415615
 30
0
 10
568.9242221629
 20
303.1818627462
 30
0
 10
569.1000770089
 20
303.7786371905
 30
0
 10
569.2674802757
 20
304.4998729361
 30
0
 10
569.4258547337
 20
305.3438937727
 30
0
 10
569.6353573077999
 20
306.7042498263
 30
0
 10
569.8607458633001
 20
308.6917765754
 30
0
 10
570.0745344725
 20
311.4006686428
 30
0
 10
570.2409902618
 20
314.5111610241
 30
0
 10
570.31505906
 20
316.7150015038
 30
0
 10
570.3448730785
 20
317.8767621928
 30
0
  0
SPLINE
  5
284
100
AcDbEntity
  8
0
  6
CONTINUOUS
 62
    7
370
   -1
100
AcDbSpline
210
0
220
0
230
0
 70
    8
 71
    3
 72
   22
 73
   18
 74
    0
 42
1e-07
 43
1e-07
 40
0
 40
0
 40
0
 40
0
 40
0.06666666666666667
 40
0.1333333333333333
 40
0.2
 40
0.2666666666666667
 40
0.3333333333333333
 40
0.4
 40
0.4666666666666667
 40
0.5333333333333333
 40
0.6
 40
0.6666666666666666
 40
0.7333333333333333
 40
0.8
 40
0.8666666666666667
 40
0.9333333333333333
 40
1
 40
1
 40
1
 40
1
 10
479.7204951765
 20
319.1911267552
 30
0
 10
479.6548506927
 20
317.7940652592
 30
0
 10
479.5126050451
 20
315.1355326957
 30
0
 10
479.2514266267
 20
311.3730583182
 30
0
 10
478.9974833344
 20
308.5206431927
 30
0
 10
478.7737489567
 20
306.4879795679
 30
0
 10
478.606009828
 20
305.1646320722
 30
0
 10
478.4324067501
 20
303.9840265886
 30
0
 10
478.2538431917
 20
302.9503595617
 30
0
 10
478.0712912431
 20
302.0677316538
 30
0
 10
477.8858753192
 20
301.3391200606
 30
0
 10
477.6983860266
 20
300.767351968
 30
0
 10
477.5305861945
 20
300.392175495
 30
0
 10
477.3884205266
 20
300.178121764
 30
0
 10
477.2901548701
 20
300.0713913902
 30
0
 10
477.1891549716
 20
300.0036914511
 30
0
 10
477.1162285071
 20
299.9870816634
 30
0
 10
477.0825824021
 20
299.9870816661
 30
0
  0
SPLINE
  5
285
100
AcDbEntity
  8
0
  6
CONTINUOUS
 62
    7
370
   -1
100
AcDbSpline
210
0
220
0
230
0
 70
    8
 71
    3
 72
   13
 73
    9
 74
    0
 42
1e-07
 43
1e-07
 40
0
 40
0
 40
0
 40
0
 40
0.1666666666666667
 40
0.3333333333333333
 40
0.5
 40
0.6666666666666666
 40
0.8333333333333333
 40
1
 40
1
 40
1
 40
1
 10
-502.7729010034
 20
750.9590231901
 30
0
 10
-503.0555170656
 20
754.4010998175
 30
0
 10
-503.6765855244
 20
761.0540184415
 30
0
 10
-504.6217875388
 20
769.1404293398
 30
0
 10
-505.4539684759
 20
775.0921179049
 30
0
 10
-506.0695732196
 20
778.9913218043999
 30
0
 10
-506.6854447123
 20
782.4128887941
 30
0
 10
-507.1267229404
 20
784.5214901116
 30
0
 10
-507.351569524
 20
785.4838471305
 30
0
  0
SPLINE
  5
286
100
AcDbEntity
  8
0
  6
CONTINUOUS
 62
    7
370
   -1
100
AcDbSpline
210
0
220
0
230
0
 70
    8
 71
    3
 72
   23
 73
   19
 74
    0
 42
1e-07
 43
1e-07
 40
0
 40
0
 40
0
 40
0
 40
0.0625
 40
0.125
 40
0.1875
 40
0.25
 40
0.3125
 40
0.375
 40
0.4375
 40
0.5
 40
0.5625
 40
0.625
 40
0.6875
 40
0.75
 40
0.8125
 40
0.875
 40
0.9375
 40
1
 40
1
 40
1
 40
1
 10
458.3356240772
 20
319.7645701928
 30
0
 10
458.2727978475
 20
318.3290060776
 30
0
 10
458.1362306354
 20
315.5946196903
 30
0
 10
457.8842914853
 20
311.7233190299
 30
0
 10
457.6377618139
 20
308.78635887
 30
0
 10
457.4192674633
 20
306.6932970997
 30
0
 10
457.2554352946
 20
305.3301624701
 30
0
 10
457.0857260061
 20
304.1127358671
 30
0
 10
456.9109938208
 20
303.0456862472
 30
0
 10
456.7323153164
 20
302.1334470966
 30
0
 10
456.5506230898
 20
301.3805557757
 30
0
 10
456.388660786
 20
300.8567223755
 30
0
 10
456.2529538891
 20
300.5231873384
 30
0
 10
456.158041571
 20
300.3325323445
 30
0
 10
456.0627389761
 20
300.1828404324
 30
0
 10
455.9664161828
 20
300.073581916
 30
0
 10
455.867284199
 20
300.004211291
 30
0
 10
455.7951928601
 20
299.9870816634
 30
0
 10
455.7621061084
 20
299.9870816661
 30
0
  0
SPLINE
  5
287
100
AcDbEntity
  8
0
  6
CONTINUOUS
 62
    7
370
   -1
100
AcDbSpline
210
0
220
0
230
0
 70
    8
 71
    3
 72
   11
 73
    7
 74
    0
 42
1e-07
 43
1e-07
 40
0
 40
0
 40
0
 40
0
 40
0.25
 40
0.5
 40
0.75
 40
1
 40
1
 40
1
 40
1
 10
-523.2284225762
 20
820.008407124
 30
0
 10
-523.2284225777
 20
816.7088350931
 30
0
 10
-523.2421521407
 20
810.3150995419001
 30
0
 10
-523.3013283138
 20
801.2252106356
 30
0
 10
-523.394956968
 20
793.3041745788
 30
0
 10
-523.4868478129
 20
788.4775337101
 30
0
 10
-523.5432782872
 20
786.3471855216
 30
0
  0
SPLINE
  5
288
100
AcDbEntity
  8
0
  6
CONTINUOUS
 62
    7
370
   -1
100
AcDbSpline
210
0
220
0
230
0
 70
    8
 71
    3
 72
   20
 73
   16
 74
    0
 42
1e-07
 43
1e-07
 40
0
 40
0
 40
0
 40
0
 40
0.07692307692307693
 40
0.1538461538461539
 40
0.2307692307692308
 40
0.3076923076923077
 40
0.3846153846153846
 40
0.4615384615384616
 40
0.5384615384615385
 40
0.6153846153846154
 40
0.6923076923076923
 40
0.7692307692307693
 40
0.8461538461538463
 40
0.9230769230769231
 40
1
 40
1
 40
1
 40
1
 10
-1037.004351058
 20
299.9870816661
 30
0
 10
-1037.4699937176
 20
299.9870816661
 30
0
 10
-1038.4354299764
 20
300.1252187421
 30
0
 10
-1039.8352755115
 20
300.7297910027
 30
0
 10
-1041.1889658297
 20
301.7169923963
 30
0
 10
-1042.4906232158
 20
303.0655042192
 30
0
 10
-1043.7364284657
 20
304.7593893285
 30
0
 10
-1044.917272301
 20
306.7845909858
 30
0
 10
-1046.0218561048
 20
309.1259113655
 30
0
 10
-1047.0382915238
 20
311.7633929159
 30
0
 10
-1047.9605286658
 20
314.6705141337
 30
0
 10
-1049.0817053415
 20
318.9789126488
 30
0
 10
-1050.1645626794
 20
324.8358165258
 30
0
 10
-1050.9429272217
 20
332.2652313666
 30
0
 10
-1051.12074044
 20
337.3858874594
 30
0
 10
-1051.12074044
 20
339.9887220861
 30
0
  0
SPLINE
  5
289
100
AcDbEntity
  8
0
  6
CONTINUOUS
 62
    7
370
   -1
100
AcDbSpline
210
0
220
0
230
0
 70
    8
 71
    3
 72
   20
 73
   16
 74
    0
 42
1e-07
 43
1e-07
 40
0
 40
0
 40
0
 40
0
 40
0.07692307692307693
 40
0.1538461538461539
 40
0.2307692307692308
 40
0.3076923076923077
 40
0.3846153846153846
 40
0.4615384615384616
 40
0.5384615384615385
 40
0.6153846153846154
 40
0.6923076923076923
 40
0.7692307692307693
 40
0.8461538461538463
 40
0.9230769230769231
 40
1
 40
1
 40
1
 40
1
 10
-1050.3809182254
 20
300.0765482738
 30
0
 10
-1050.8560053267
 20
300.0829036163
 30
0
 10
-1051.8373012531
 20
300.2327368267
 30
0
 10
-1053.2574256432
 20
300.8513146341
 30
0
 10
-1054.6268374513
 20
301.8502110039
 30
0
 10
-1055.9389197425
 20
303.2082473131
 30
0
 10
-1057.1895795884
 20
304.909224178
 30
0
 10
-1058.3697259242
 20
306.9389395468
 30
0
 10
-1059.4681316615
 20
309.2821664738
 30
0
 10
-1060.473029532
 20
311.9190194447
 30
0
 10
-1061.3786158844
 20
314.8231400861
 30
0
 10
-1062.4701778797
 20
319.1237556967
 30
0
 10
-1063.504863223
 20
324.9674955035
 30
0
 10
-1064.2111115139
 20
332.376956078
 30
0
 10
-1064.3325822206
 20
337.4808929125
 30
0
 10
-1064.3024172248
 20
340.0746100294
 30
0
  0
SPLINE
  5
28A
100
AcDbEntity
  8
0
  6
CONTINUOUS
 62
    7
370
   -1
100
AcDbSpline
210
0
220
0
230
0
 70
    8
 71
    3
 72
   12
 73
    8
 74
    0
 42
1e-07
 43
1e-07
 40
0
 40
0
 40
0
 40
0
 40
0.2
 40
0.4
 40
0.6000000000000001
 40
0.8
 40
1
 40
1
 40
1
 40
1
 10
-1207.3333628775
 20
347.1003756535
 30
0
 10
-1195.6534287688
 20
345.9733538504
 30
0
 10
-1178.0546115107
 20
344.5437314177
 30
0
 10
-1154.493136807
 20
343.0645759567
 30
0
 10
-1130.6449529994
 20
341.8277014269
 30
0
 10
-1100.5703902913
 20
340.7162652475
 30
0
 10
-1076.4346104572
 20
340.2327167342
 30
0
 10
-1064.3024172241
 20
340.0746100294
 30
0
  0
SPLINE
  5
28B
100
AcDbEntity
  8
0
  6
CONTINUOUS
 62
    7
370
   -1
100
AcDbSpline
210
0
220
0
230
0
 70
    8
 71
    3
 72
   10
 73
    6
 74
    0
 42
1e-07
 43
1e-07
 40
0
 40
0
 40
0
 40
0
 40
0.3333333333333333
 40
0.6666666666666666
 40
1
 40
1
 40
1
 40
1
 10
-421.1983698483
 20
410.3431665064
 30
0
 10
-431.0883013092
 20
410.9041117567
 30
0
 10
-450.9109163185
 20
411.8895406897
 30
0
 10
-490.6763399671
 20
413.4291146544
 30
0
 10
-520.5566335432
 20
414.2023732826
 30
0
 10
-540.5008481523
 20
414.6053030033
 30
0
  0
SPLINE
  5
28C
100
AcDbEntity
  8
0
  6
CONTINUOUS
 62
    7
370
   -1
100
AcDbSpline
210
0
220
0
230
0
 70
    8
 71
    3
 72
   31
 73
   27
 74
    0
 42
1e-07
 43
1e-07
 40
0
 40
0
 40
0
 40
0
 40
0.04166666666666666
 40
0.08333333333333333
 40
0.125
 40
0.1666666666666667
 40
0.2083333333333333
 40
0.25
 40
0.2916666666666666
 40
0.3333333333333333
 40
0.375
 40
0.4166666666666666
 40
0.4583333333333333
 40
0.5
 40
0.5416666666666666
 40
0.5833333333333333
 40
0.625
 40
0.6666666666666666
 40
0.7083333333333333
 40
0.75
 40
0.7916666666666666
 40
0.8333333333333333
 40
0.875
 40
0.9166666666666666
 40
0.9583333333333333
 40
1
 40
1
 40
1
 40
1
 10
520.4715715717
 20
881.6335081423
 30
0
 10
520.421294786
 20
882.974461704
 30
0
 10
520.3184112379
 20
885.5266442712
 30
0
 10
520.1123130134
 20
889.1360316991
 30
0
 10
519.8594838809
 20
891.8656804198
 30
0
 10
519.6538103418
 20
893.8073188001
 30
0
 10
519.5185594079001
 20
895.0704966513
 30
0
 10
519.4077812893
 20
896.199538802
 30
0
 10
519.3025362582
 20
897.0534194843
 30
0
 10
519.189224084
 20
897.6634473953
 30
0
 10
519.0891884819
 20
898.068381984
 30
0
 10
518.966227493
 20
898.437015474
 30
0
 10
518.8150024192
 20
898.7682838562
 30
0
 10
518.6342261326
 20
899.05721992
 30
0
 10
518.4421739925
 20
899.306226139
 30
0
 10
518.2811061216
 20
899.4876260603
 30
0
 10
518.161415808
 20
899.6149525807
 30
0
 10
518.0831964939
 20
899.6969133617999
 30
0
 10
518.0150663692
 20
899.7691954408
 30
0
 10
517.9592210849
 20
899.8315497856
 30
0
 10
517.9173190028
 20
899.8846373002
 30
0
 10
517.8914049479999
 20
899.9273946512
 30
0
 10
517.8808430659
 20
899.9670121782
 30
0
 10
517.90419164
 20
899.9987920685001
 30
0
 10
517.9509836738
 20
900.0096583251
 30
0
 10
517.9869139018
 20
900.0116879653
 30
0
 10
518.0090104639
 20
900.0116879653
 30
0
  0
SPLINE
  5
28D
100
AcDbEntity
  8
0
  6
CONTINUOUS
 62
    7
370
   -1
100
AcDbSpline
210
0
220
0
230
0
 70
    8
 71
    3
 72
   23
 73
   19
 74
    0
 42
1e-07
 43
1e-07
 40
0
 40
0
 40
0
 40
0
 40
0.0625
 40
0.125
 40
0.1875
 40
0.25
 40
0.3125
 40
0.375
 40
0.4375
 40
0.5
 40
0.5625
 40
0.625
 40
0.6875
 40
0.75
 40
0.8125
 40
0.875
 40
0.9375
 40
1
 40
1
 40
1
 40
1
 10
54.6706143806
 20
860.0103148961
 30
0
 10
54.670613262
 20
862.6115975686999
 30
0
 10
54.6388986137
 20
867.7151049573
 30
0
 10
54.5003294621
 20
875.1234338708
 30
0
 10
54.2745012277
 20
881.9519354421
 30
0
 10
54.0131020534
 20
887.157008441
 30
0
 10
53.7599167016
 20
890.8353523675
 30
0
 10
53.5636443955
 20
893.1659369318
 30
0
 10
53.354628862
 20
895.1770296705999
 30
0
 10
53.1634964165
 20
896.6441110165
 30
0
 10
53.0014325038
 20
897.6441402266
 30
0
 10
52.8849228416
 20
898.2613402618
 30
0
 10
52.7672992671
 20
898.78632449
 30
0
 10
52.6482787301
 20
899.2182083492
 30
0
 10
52.5437147353
 20
899.5162988770001
 30
0
 10
52.4553800914
 20
899.7074950121
 30
0
 10
52.3634795535
 20
899.8720489437
 30
0
 10
52.2459616893
 20
900.0116879538
 30
0
 10
52.1414915175
 20
900.0116879653
 30
0
  0
SPLINE
  5
28E
100
AcDbEntity
  8
0
  6
CONTINUOUS
 62
    7
370
   -1
100
AcDbSpline
210
0
220
0
230
0
 70
    8
 71
    3
 72
   24
 73
   20
 74
    0
 42
1e-07
 43
1e-07
 40
0
 40
0
 40
0
 40
0
 40
0.05882352941176471
 40
0.1176470588235294
 40
0.1764705882352941
 40
0.2352941176470588
 40
0.2941176470588235
 40
0.3529411764705882
 40
0.4117647058823529
 40
0.4705882352941176
 40
0.5294117647058824
 40
0.5882352941176471
 40
0.6470588235294118
 40
0.7058823529411764
 40
0.7647058823529411
 40
0.8235294117647058
 40
0.8823529411764706
 40
0.9411764705882353
 40
1
 40
1
 40
1
 40
1
 10
6.5814278005
 20
860.0100475208
 30
0
 10
6.5814278007
 20
862.6113901759001
 30
0
 10
6.5377053471
 20
867.7154264861
 30
0
 10
6.3462000323
 20
875.124309429
 30
0
 10
6.0793886374
 20
880.9816159007
 30
0
 10
5.8014223287
 20
885.3061916045
 30
0
 10
5.5741867125
 20
888.20703393
 30
0
 10
5.3241891984
 20
890.8360139965
 30
0
 10
5.053228295
 20
893.1671732575001
 30
0
 10
4.7645703017
 20
895.1791369113
 30
0
 10
4.5006918282
 20
896.646100345
 30
0
 10
4.2771570171
 20
897.6452528868
 30
0
 10
4.1162293763
 20
898.2629071264
 30
0
 10
3.9534169515
 20
898.7887218519
 30
0
 10
3.7889611564
 20
899.2213173363
 30
0
 10
3.6233701199
 20
899.5608491434
 30
0
 10
3.4559368114
 20
899.8081627728
 30
0
 10
3.283795979
 20
899.9685760899
 30
0
 10
3.1498154931
 20
900.0116879648
 30
0
 10
3.0905211906
 20
900.0116879653
 30
0
  0
SPLINE
  5
28F
100
AcDbEntity
  8
0
  6
CONTINUOUS
 62
    7
370
   -1
100
AcDbSpline
210
0
220
0
230
0
 70
    8
 71
    3
 72
   26
 73
   22
 74
    0
 42
1e-07
 43
1e-07
 40
0
 40
0
 40
0
 40
0
 40
0.05263157894736842
 40
0.1052631578947368
 40
0.1578947368421053
 40
0.2105263157894737
 40
0.2631578947368421
 40
0.3157894736842105
 40
0.3684210526315789
 40
0.4210526315789473
 40
0.4736842105263158
 40
0.5263157894736842
 40
0.5789473684210527
 40
0.631578947368421
 40
0.6842105263157894
 40
0.7368421052631579
 40
0.7894736842105263
 40
0.8421052631578947
 40
0.8947368421052631
 40
0.9473684210526315
 40
1
 40
1
 40
1
 40
1
 10
-113.3589930728
 20
860.0100474997
 30
0
 10
-113.3589930729
 20
862.6113044678
 30
0
 10
-113.3427178166
 20
867.7143985021
 30
0
 10
-113.2823279137
 20
874.0000805102
 30
0
 10
-113.209023542
 20
878.8062760374
 30
0
 10
-113.1439991557
 20
882.1618601924
 30
0
 10
-113.0688288377
 20
885.3048656595
 30
0
 10
-112.9843085149
 20
888.2052707010999
 30
0
 10
-112.8913458033
 20
890.8336145607
 30
0
 10
-112.7905635411
 20
893.1638345456
 30
0
 10
-112.6833968289
 20
895.174476185
 30
0
 10
-112.5711497819
 20
896.8481042281001
 30
0
 10
-112.4691074461
 20
898.0244568457
 30
0
 10
-112.3818534582
 20
898.7842042279
 30
0
 10
-112.3209983726
 20
899.2148091161999
 30
0
 10
-112.2672664637
 20
899.5138350881
 30
0
 10
-112.2220615255
 20
899.7050422319001
 30
0
 10
-112.1912535294
 20
899.8128481042
 30
0
 10
-112.1594803082
 20
899.8983950583
 30
0
 10
-112.1262507799
 20
899.9665833436
 30
0
 10
-112.0868103869
 20
900.0116870068
 30
0
 10
-112.0602237321
 20
900.0116879653
 30
0
  0
SPLINE
  5
290
100
AcDbEntity
  8
0
  6
CONTINUOUS
 62
    7
370
   -1
100
AcDbSpline
210
0
220
0
230
0
 70
    8
 71
    3
 72
   25
 73
   21
 74
    0
 42
1e-07
 43
1e-07
 40
0
 40
0
 40
0
 40
0
 40
0.05555555555555555
 40
0.1111111111111111
 40
0.1666666666666667
 40
0.2222222222222222
 40
0.2777777777777778
 40
0.3333333333333333
 40
0.3888888888888888
 40
0.4444444444444444
 40
0.5
 40
0.5555555555555556
 40
0.611111111111111
 40
0.6666666666666666
 40
0.7222222222222222
 40
0.7777777777777777
 40
0.8333333333333333
 40
0.8888888888888888
 40
0.9444444444444444
 40
1
 40
1
 40
1
 40
1
 10
-275.508990728
 20
900.0116879653
 30
0
 10
-275.4702352126
 20
900.0116879653
 30
0
 10
-275.4071733323
 20
899.974744539
 30
0
 10
-275.3451236538
 20
899.8991806888
 30
0
 10
-275.2678033118
 20
899.7727254473
 30
0
 10
-275.1778674733
 20
899.5518380285
 30
0
 10
-275.0759881326
 20
899.2147048717
 30
0
 10
-274.9747299672
 20
898.7838274616
 30
0
 10
-274.8740694759
 20
898.2599495245
 30
0
 10
-274.7746306669
 20
897.6439987653
 30
0
 10
-274.6361317108
 20
896.6445262513
 30
0
 10
-274.4729803198
 20
895.1770012267
 30
0
 10
-274.2948851326
 20
893.1647218677
 30
0
 10
-274.1274657635
 20
890.8333363688
 30
0
 10
-273.9724753343
 20
888.205137584
 30
0
 10
-273.8319185391
 20
885.3055448914999
 30
0
 10
-273.6600845893
 20
880.9805555328001
 30
0
 10
-273.4952393193
 20
875.1223072666
 30
0
 10
-273.3764451878
 20
867.7140600294
 30
0
 10
-273.3497702645
 20
862.6105887685
 30
0
 10
-273.3497702645
 20
860.0100475454
 30
0
  0
SPLINE
  5
291
100
AcDbEntity
  8
0
  6
CONTINUOUS
 62
    7
370
   -1
100
AcDbSpline
210
0
220
0
230
0
 70
    8
 71
    3
 72
   24
 73
   20
 74
    0
 42
1e-07
 43
1e-07
 40
0
 40
0
 40
0
 40
0
 40
0.05882352941176471
 40
0.1176470588235294
 40
0.1764705882352941
 40
0.2352941176470588
 40
0.2941176470588235
 40
0.3529411764705882
 40
0.4117647058823529
 40
0.4705882352941176
 40
0.5294117647058824
 40
0.5882352941176471
 40
0.6470588235294118
 40
0.7058823529411764
 40
0.7647058823529411
 40
0.8235294117647058
 40
0.8823529411764706
 40
0.9411764705882353
 40
1
 40
1
 40
1
 40
1
 10
-260.3529099684
 20
860.0120907085
 30
0
 10
-260.3529086534
 20
862.6126215571001
 30
0
 10
-260.3837670365
 20
867.7161718189
 30
0
 10
-260.5208553446
 20
875.124527614
 30
0
 10
-260.7434228276
 20
881.9532936798
 30
0
 10
-261.0010354363
 20
887.1572408404
 30
0
 10
-261.2514340144
 20
890.8350403514
 30
0
 10
-261.4449174192
 20
893.1663788748
 30
0
 10
-261.6507047906
 20
895.1786531337
 30
0
 10
-261.8392267092
 20
896.6459191663999
 30
0
 10
-261.999207506
 20
897.644936326
 30
0
 10
-262.1141365969
 20
898.2608708325
 30
0
 10
-262.2304770484
 20
898.7847858947
 30
0
 10
-262.3476575932
 20
899.2158433997
 30
0
 10
-262.4654949848
 20
899.5533133515
 30
0
 10
-262.5699689332
 20
899.7741198666999
 30
0
 10
-262.6587796616
 20
899.8996506961
 30
0
 10
-262.7325547561
 20
899.9765632735
 30
0
 10
-262.8038148612
 20
900.0111772877
 30
0
 10
-262.8475856341
 20
900.0111105001999
 30
0
  0
SPLINE
  5
292
100
AcDbEntity
  8
0
  6
CONTINUOUS
 62
    7
370
   -1
100
AcDbSpline
210
0
220
0
230
0
 70
    8
 71
    3
 72
   15
 73
   11
 74
    0
 42
1e-07
 43
1e-07
 40
0
 40
0
 40
0
 40
0
 40
0.125
 40
0.25
 40
0.375
 40
0.5
 40
0.625
 40
0.75
 40
0.875
 40
1
 40
1
 40
1
 40
1
 10
554.039390951
 20
594.8522092167
 30
0
 10
554.4821951673
 20
594.2845265535
 30
0
 10
555.5198147971
 20
593.249728444
 30
0
 10
557.407074535
 20
592.1138029694
 30
0
 10
559.5252639599
 20
591.4449955769001
 30
0
 10
561.7487561615
 20
591.2833888818
 30
0
 10
563.9478541215
 20
591.6364129886
 30
0
 10
565.9932245514
 20
592.4867732588
 30
0
 10
567.7646129072
 20
593.7814789641
 30
0
 10
568.6984560918
 20
594.902628685
 30
0
 10
569.0846004415999
 20
595.5062747818
 30
0
  0
SPLINE
  5
293
100
AcDbEntity
  8
0
  6
CONTINUOUS
 62
    7
370
   -1
100
AcDbSpline
210
0
220
0
230
0
 70
    8
 71
    3
 72
   11
 73
    7
 74
    0
 42
1e-07
 43
1e-07
 40
0
 40
0
 40
0
 40
0
 40
0.25
 40
0.5
 40
0.75
 40
1
 40
1
 40
1
 40
1
 10
2282.0687404184
 20
-248.2720461288
 30
0
 10
2282.1490597046
 20
-249.9043011185
 30
0
 10
2282.1581009637
 20
-253.3080604226
 30
0
 10
2281.7519370675
 20
-258.6355229688
 30
0
 10
2280.991874328
 20
-264.4658838896
 30
0
 10
2280.3533947901
 20
-268.5297838702
 30
0
 10
2280.0109074353
 20
-270.6758051229
 30
0
  0
SPLINE
  5
294
100
AcDbEntity
  8
0
  6
CONTINUOUS
 62
    7
370
   -1
100
AcDbSpline
210
0
220
0
230
0
 70
    8
 71
    3
 72
   14
 73
   10
 74
    0
 42
1e-07
 43
1e-07
 40
0
 40
0
 40
0
 40
0
 40
0.1428571428571428
 40
0.2857142857142857
 40
0.4285714285714285
 40
0.5714285714285714
 40
0.7142857142857142
 40
0.8571428571428571
 40
1
 40
1
 40
1
 40
1
 10
2246.843209523
 20
-548.2341195438
 30
0
 10
2246.8363552842
 20
-548.09397996
 30
0
 10
2246.8667679297
 20
-547.7998925885
 30
0
 10
2247.0385060181
 20
-547.3693770921
 30
0
 10
2247.3202040963
 20
-546.94266271
 30
0
 10
2247.6981988516
 20
-546.5144502081999
 30
0
 10
2248.1586583036
 20
-546.0793598527
 30
0
 10
2248.8914731717
 20
-545.4664101172
 30
0
 10
2249.4935240716
 20
-545.0293220566
 30
0
 10
2249.9106252102
 20
-544.7325789508
 30
0
  0
SPLINE
  5
295
100
AcDbEntity
  8
0
  6
CONTINUOUS
 62
    7
370
   -1
100
AcDbSpline
210
0
220
0
230
0
 70
    8
 71
    3
 72
   11
 73
    7
 74
    0
 42
1e-07
 43
1e-07
 40
0
 40
0
 40
0
 40
0
 40
0.25
 40
0.5
 40
0.75
 40
1
 40
1
 40
1
 40
1
 10
1751.667235689
 20
-240.5617991986
 30
0
 10
1751.7183479112
 20
-241.6005785369
 30
0
 10
1751.7045755553
 20
-243.7846479575
 30
0
 10
1751.3763718164
 20
-247.2149341451
 30
0
 10
1750.7796010616
 20
-250.980075654
 30
0
 10
1750.2686621606
 20
-253.6018943862
 30
0
 10
1749.9892607324
 20
-254.9816320279
 30
0
  0
SPLINE
  5
296
100
AcDbEntity
  8
0
  6
CONTINUOUS
 62
    7
370
   -1
100
AcDbSpline
210
0
220
0
230
0
 70
    8
 71
    3
 72
    9
 73
    5
 74
    0
 42
1e-07
 43
1e-07
 40
0
 40
0
 40
0
 40
0
 40
0.5
 40
1
 40
1
 40
1
 40
1
 10
1865.3823224357
 20
-223.3959658041
 30
0
 10
1865.3772613779
 20
-223.308662649
 30
0
 10
1865.3748855289
 20
-223.1651299791
 30
0
 10
1865.4093633996
 20
-223.0203276981
 30
0
 10
1865.4390326524
 20
-222.9723636439
 30
0
  0
SPLINE
  5
297
100
AcDbEntity
  8
0
  6
CONTINUOUS
 62
    7
370
   -1
100
AcDbSpline
210
0
220
0
230
0
 70
    8
 71
    3
 72
   11
 73
    7
 74
    0
 42
1e-07
 43
1e-07
 40
0
 40
0
 40
0
 40
0
 40
0.25
 40
0.5
 40
0.75
 40
1
 40
1
 40
1
 40
1
 10
2134.6161408074
 20
-223.3968472004
 30
0
 10
2134.618944683
 20
-223.3482651804
 30
0
 10
2134.6212350324
 20
-223.2598980327
 30
0
 10
2134.6161439378
 20
-223.1427617743
 30
0
 10
2134.5940062022
 20
-223.0527405322
 30
0
 10
2134.5671584616
 20
-223.0079702383
 30
0
 10
2134.5550050197
 20
-222.9883205136
 30
0
  0
SPLINE
  5
298
100
AcDbEntity
  8
0
  6
CONTINUOUS
 62
    7
370
   -1
100
AcDbSpline
210
0
220
0
230
0
 70
    8
 71
    3
 72
    9
 73
    5
 74
    0
 42
1e-07
 43
1e-07
 40
0
 40
0
 40
0
 40
0
 40
0.5
 40
1
 40
1
 40
1
 40
1
 10
1703.0370241032
 20
-214.7326704672
 30
0
 10
1702.083100828
 20
-217.033802082
 30
0
 10
1700.520358173
 20
-222.1696910639
 30
0
 10
1699.9870816661
 20
-227.5191879232
 30
0
 10
1699.9870816661
 20
-230.3616123443
 30
0
  0
SPLINE
  5
299
100
AcDbEntity
  8
0
  6
CONTINUOUS
 62
    7
370
   -1
100
AcDbSpline
210
0
220
0
230
0
 70
    8
 71
    3
 72
   11
 73
    7
 74
    0
 42
1e-07
 43
1e-07
 40
0
 40
0
 40
0
 40
0
 40
0.25
 40
0.5
 40
0.75
 40
1
 40
1
 40
1
 40
1
 10
2300.0116879653
 20
-229.4276792675
 30
0
 10
2300.0116879653
 20
-227.2187147315
 30
0
 10
2299.7234754323
 20
-223.0299033956
 30
0
 10
2298.5839512807
 20
-217.2019267242
 30
0
 10
2297.0505373454
 20
-212.2071886735
 30
0
 10
2295.8425727081
 20
-209.1948814
 30
0
 10
2295.2403056489
 20
-207.8215038439
 30
0
  0
SPLINE
  5
29A
100
AcDbEntity
  8
0
  6
CONTINUOUS
 62
    7
370
   -1
100
AcDbSpline
210
0
220
0
230
0
 70
    8
 71
    3
 72
   13
 73
    9
 74
    0
 42
1e-07
 43
1e-07
 40
0
 40
0
 40
0
 40
0
 40
0.1666666666666667
 40
0.3333333333333333
 40
0.5
 40
0.6666666666666666
 40
0.8333333333333333
 40
1
 40
1
 40
1
 40
1
 10
2280.0109526139
 20
-529.4618011388
 30
0
 10
2280.2593780457
 20
-529.9208861021
 30
0
 10
2280.7441633364
 20
-530.8061292940999
 30
0
 10
2281.6582482014
 20
-532.4721560339
 30
0
 10
2282.6766583959
 20
-534.4242157701
 30
0
 10
2283.3841978322
 20
-536.4373509386
 30
0
 10
2283.6261356363
 20
-538.0593916953
 30
0
 10
2283.6383016836
 20
-538.8751662432001
 30
0
 10
2283.6181363925
 20
-539.2836817235
 30
0
  0
SPLINE
  5
29B
100
AcDbEntity
  8
0
  6
CONTINUOUS
 62
    7
370
   -1
100
AcDbSpline
210
0
220
0
230
0
 70
    8
 71
    3
 72
   22
 73
   18
 74
    0
 42
1e-07
 43
1e-07
 40
0
 40
0
 40
0
 40
0
 40
0.06666666666666667
 40
0.1333333333333333
 40
0.2
 40
0.2666666666666667
 40
0.3333333333333333
 40
0.4
 40
0.4666666666666667
 40
0.5333333333333333
 40
0.6
 40
0.6666666666666666
 40
0.7333333333333333
 40
0.8
 40
0.8666666666666667
 40
0.9333333333333333
 40
1
 40
1
 40
1
 40
1
 10
2132.5725586153
 20
-185.4953042975
 30
0
 10
2132.5725586153
 20
-187.8453128686
 30
0
 10
2132.6006483132
 20
-192.4620561182
 30
0
 10
2132.7231671049
 20
-199.1721576333
 30
0
 10
2132.8902812549
 20
-204.4909185588
 30
0
 10
2133.0599372191
 20
-208.4332661066
 30
0
 10
2133.1970318428
 20
-211.0971213607
 30
0
 10
2133.3453566065
 20
-213.5329598378
 30
0
 10
2133.5028839028
 20
-215.7210811494
 30
0
 10
2133.6675243548
 20
-217.6447244683
 30
0
 10
2133.8365826233
 20
-219.2902830191
 30
0
 10
2134.0079311383
 20
-220.6462119111
 30
0
 10
2134.1592452895
 20
-221.5896735496
 30
0
 10
2134.28525348
 20
-222.191065748
 30
0
 10
2134.3712176657
 20
-222.5282813596
 30
0
 10
2134.4557845984
 20
-222.7877342846
 30
0
 10
2134.5202391686
 20
-222.9319627187
 30
0
 10
2134.5550050197
 20
-222.9883205136
 30
0
  0
SPLINE
  5
29C
100
AcDbEntity
  8
0
  6
CONTINUOUS
 62
    7
370
   -1
100
AcDbSpline
210
0
220
0
230
0
 70
    8
 71
    3
 72
   10
 73
    6
 74
    0
 42
1e-07
 43
1e-07
 40
0
 40
0
 40
0
 40
0
 40
0.3333333333333333
 40
0.6666666666666666
 40
1
 40
1
 40
1
 40
1
 10
2249.9106252102
 20
-544.7325789508
 30
0
 10
2249.9186498898
 20
-544.7268943533001
 30
0
 10
2249.9410462168
 20
-544.7143040054
 30
0
 10
2249.9707909165
 20
-544.686117477
 30
0
 10
2249.9973487905
 20
-544.6702478364
 30
0
 10
2250.0095466431
 20
-544.6613727586
 30
0
  0
SPLINE
  5
29D
100
AcDbEntity
  8
0
  6
CONTINUOUS
 62
    7
370
   -1
100
AcDbSpline
210
0
220
0
230
0
 70
    8
 71
    3
 72
   22
 73
   18
 74
    0
 42
1e-07
 43
1e-07
 40
0
 40
0
 40
0
 40
0
 40
0.06666666666666667
 40
0.1333333333333333
 40
0.2
 40
0.2666666666666667
 40
0.3333333333333333
 40
0.4
 40
0.4666666666666667
 40
0.5333333333333333
 40
0.6
 40
0.6666666666666666
 40
0.7333333333333333
 40
0.8
 40
0.8666666666666667
 40
0.9333333333333333
 40
1
 40
1
 40
1
 40
1
 10
1867.4235983913
 20
-185.4953042979
 30
0
 10
1867.4235983913
 20
-187.8446978225
 30
0
 10
1867.395145293
 20
-192.4601390825
 30
0
 10
1867.272262227
 20
-199.1682464425
 30
0
 10
1867.1053616478
 20
-204.4853156409
 30
0
 10
1866.9357124779
 20
-208.4263568066
 30
0
 10
1866.7985674568
 20
-211.0892799864
 30
0
 10
1866.6501515646
 20
-213.5241735798
 30
0
 10
1866.4924945518
 20
-215.7113540243
 30
0
 10
1866.3277202923
 20
-217.6340609998
 30
0
 10
1866.1584950902
 20
-219.2786243101
 30
0
 10
1865.9868918918
 20
-220.6334066798
 30
0
 10
1865.8352615321
 20
-221.5758098223
 30
0
 10
1865.7090205789
 20
-222.1763687804
 30
0
 10
1865.622926581
 20
-222.5130640032
 30
0
 10
1865.5382696834
 20
-222.7721055241
 30
0
 10
1865.4737882752
 20
-222.9160942034
 30
0
 10
1865.4390326524
 20
-222.9723636439
 30
0
  0
SPLINE
  5
29E
100
AcDbEntity
  8
0
  6
CONTINUOUS
 62
    7
370
   -1
100
AcDbSpline
210
0
220
0
230
0
 70
    8
 71
    3
 72
   12
 73
    8
 74
    0
 42
1e-07
 43
1e-07
 40
0
 40
0
 40
0
 40
0
 40
0.2
 40
0.4
 40
0.6000000000000001
 40
0.8
 40
1
 40
1
 40
1
 40
1
 10
2280.0108677553
 20
-529.4614574148
 30
0
 10
2278.3978799085
 20
-531.6462511507
 30
0
 10
2274.6179455694
 20
-535.7675466739
 30
0
 10
2267.5498437938
 20
-540.6360814871
 30
0
 10
2260.6328335186
 20
-543.3045555085
 30
0
 10
2254.6621534136
 20
-544.4400580575
 30
0
 10
2251.5648444881
 20
-544.6511120602
 30
0
 10
2250.0096374404
 20
-544.6614221527
 30
0
  0
SPLINE
  5
29F
100
AcDbEntity
  8
0
  6
CONTINUOUS
 62
    7
370
   -1
100
AcDbSpline
210
0
220
0
230
0
 70
    8
 71
    3
 72
    9
 73
    5
 74
    0
 42
1e-07
 43
1e-07
 40
0
 40
0
 40
0
 40
0
 40
0.5
 40
1
 40
1
 40
1
 40
1
 10
1730.2687279159
 20
-544.6625276557
 30
0
 10
1729.7664305092
 20
-544.6595525138
 30
0
 10
1728.763622192
 20
-544.6271054603
 30
0
 10
1727.7674349046
 20
-544.5062327685999
 30
0
 10
1727.2732715377
 20
-544.4304729022
 30
0
  0
SPLINE
  5
2A0
100
AcDbEntity
  8
0
  6
CONTINUOUS
 62
    7
370
   -1
100
AcDbSpline
210
0
220
0
230
0
 70
    8
 71
    3
 72
   11
 73
    7
 74
    0
 42
1e-07
 43
1e-07
 40
0
 40
0
 40
0
 40
0
 40
0.25
 40
0.5
 40
0.75
 40
1
 40
1
 40
1
 40
1
 10
1727.2732715377
 20
-544.4304729022
 30
0
 10
1726.6050483345
 20
-544.3280280347
 30
0
 10
1725.292066332
 20
-544.0483087317
 30
0
 10
1723.4004719219
 20
-543.430004495
 30
0
 10
1721.6253761881
 20
-542.6348424219
 30
0
 10
1720.5172652935
 20
-541.9922423716999
 30
0
 10
1719.9879018761
 20
-541.6489270012
 30
0
  0
SPLINE
  5
2A1
100
AcDbEntity
  8
0
  6
CONTINUOUS
 62
    7
370
   -1
100
AcDbSpline
210
0
220
0
230
0
 70
    8
 71
    3
 72
   14
 73
   10
 74
    0
 42
1e-07
 43
1e-07
 40
0
 40
0
 40
0
 40
0
 40
0.1428571428571428
 40
0.2857142857142857
 40
0.4285714285714285
 40
0.5714285714285714
 40
0.7142857142857142
 40
0.8571428571428571
 40
1
 40
1
 40
1
 40
1
 10
1749.9892229797
 20
-544.6620246478
 30
0
 10
1750.418210007
 20
-544.9656503241
 30
0
 10
1751.0373110348
 20
-545.413063129
 30
0
 10
1751.7928395651
 20
-546.0384360308
 30
0
 10
1752.2686678055
 20
-546.48138556
 30
0
 10
1752.6598105043
 20
-546.9172193975
 30
0
 10
1752.9522228953
 20
-547.351771459
 30
0
 10
1753.1305327049
 20
-547.7911708392
 30
0
 10
1753.1626146528
 20
-548.0918466608
 30
0
 10
1753.1555145144
 20
-548.2349629088
 30
0
  0
SPLINE
  5
2A2
100
AcDbEntity
  8
0
  6
CONTINUOUS
 62
    7
370
   -1
100
AcDbSpline
210
0
220
0
230
0
 70
    8
 71
    3
 72
   15
 73
   11
 74
    0
 42
1e-07
 43
1e-07
 40
0
 40
0
 40
0
 40
0
 40
0.125
 40
0.25
 40
0.375
 40
0.5
 40
0.625
 40
0.75
 40
0.875
 40
1
 40
1
 40
1
 40
1
 10
2251.3735043621
 20
-254.9789531452
 30
0
 10
2252.9674878789
 20
-254.9770273444
 30
0
 10
2256.1195604417
 20
-255.2024089952
 30
0
 10
2260.6618149221
 20
-256.2009918103
 30
0
 10
2264.8613292585
 20
-257.7563272323
 30
0
 10
2268.6552186446
 20
-259.75813041
 30
0
 10
2272.0401935841
 20
-262.1113090404
 30
0
 10
2275.0484515175
 20
-264.7369438676
 30
0
 10
2277.7108306964
 20
-267.5886174432
 30
0
 10
2279.2795416427
 20
-269.6309799177
 30
0
 10
2280.0108677553
 20
-270.676670992
 30
0
  0
SPLINE
  5
2A3
100
AcDbEntity
  8
0
  6
CONTINUOUS
 62
    7
370
   -1
100
AcDbSpline
210
0
220
0
230
0
 70
    8
 71
    3
 72
   13
 73
    9
 74
    0
 42
1e-07
 43
1e-07
 40
0
 40
0
 40
0
 40
0
 40
0.1666666666666667
 40
0.3333333333333333
 40
0.5
 40
0.6666666666666666
 40
0.8333333333333333
 40
1
 40
1
 40
1
 40
1
 10
1716.7934505984
 20
-547.31172971
 30
0
 10
1716.8164604121
 20
-546.8806544781
 30
0
 10
1716.9817576802
 20
-546.2161338786
 30
0
 10
1717.3691786929
 20
-545.3726970197
 30
0
 10
1717.7560851674
 20
-544.7015535994
 30
0
 10
1718.2164409346
 20
-544.0087682851999
 30
0
 10
1718.936705639
 20
-543.0131805881
 30
0
 10
1719.5206179005
 20
-542.2618164918
 30
0
 10
1719.917119557
 20
-541.7411933457
 30
0
  0
SPLINE
  5
2A4
100
AcDbEntity
  8
0
  6
CONTINUOUS
 62
    7
370
   -1
100
AcDbSpline
210
0
220
0
230
0
 70
    8
 71
    3
 72
    9
 73
    5
 74
    0
 42
1e-07
 43
1e-07
 40
0
 40
0
 40
0
 40
0
 40
0.5
 40
1
 40
1
 40
1
 40
1
 10
1719.917119557
 20
-541.7411933457
 30
0
 10
1719.9299736541
 20
-541.7242224422999
 30
0
 10
1719.946488273
 20
-541.6878711355999
 30
0
 10
1719.9770380228
 20
-541.6623384043
 30
0
 10
1719.9877773745
 20
-541.6482034793
 30
0
  0
SPLINE
  5
2A5
100
AcDbEntity
  8
0
  6
CONTINUOUS
 62
    7
370
   -1
100
AcDbSpline
210
0
220
0
230
0
 70
    8
 71
    3
 72
    9
 73
    5
 74
    0
 42
1e-07
 43
1e-07
 40
0
 40
0
 40
0
 40
0
 40
0.5
 40
1
 40
1
 40
1
 40
1
 10
2280.0108677553
 20
-237.1976842899
 30
0
 10
2277.1328271909
 20
-235.7059276884
 30
0
 10
2270.6034001749
 20
-233.2646192983
 30
0
 10
2263.671317551
 20
-232.4232535017
 30
0
 10
2260.0100475454
 20
-232.4232536007
 30
0
  0
SPLINE
  5
2A6
100
AcDbEntity
  8
0
  6
CONTINUOUS
 62
    7
370
   -1
100
AcDbSpline
210
0
220
0
230
0
 70
    8
 71
    3
 72
   20
 73
   16
 74
    0
 42
1e-07
 43
1e-07
 40
0
 40
0
 40
0
 40
0
 40
0.07692307692307693
 40
0.1538461538461539
 40
0.2307692307692308
 40
0.3076923076923077
 40
0.3846153846153846
 40
0.4615384615384616
 40
0.5384615384615385
 40
0.6153846153846154
 40
0.6923076923076923
 40
0.7692307692307693
 40
0.8461538461538463
 40
0.9230769230769231
 40
1
 40
1
 40
1
 40
1
 10
1813.5990826054
 20
-513.4317111399
 30
0
 10
1810.9701525124
 20
-514.7322151055
 30
0
 10
1805.8345867402
 20
-517.1593166735
 30
0
 10
1798.2848688329
 20
-520.4956825293
 30
0
 10
1791.1436276468
 20
-523.4669560327
 30
0
 10
1784.3956071363
 20
-526.122787902
 30
0
 10
1778.0322285141
 20
-528.5172455081999
 30
0
 10
1772.0430395315
 20
-530.6904597290001
 30
0
 10
1766.4145294711
 20
-532.6634373724
 30
0
 10
1761.1362848281
 20
-534.4595806347
 30
0
 10
1756.1977311256
 20
-536.1010731829
 30
0
 10
1750.267299761
 20
-538.0447320416999
 30
0
 10
1743.6260378883
 20
-540.1917413573
 30
0
 10
1736.5428589528
 20
-542.493922678
 30
0
 10
1732.229325644
 20
-543.9584867756
 30
0
 10
1730.2687279159
 20
-544.6625276557
 30
0
  0
SPLINE
  5
2A7
100
AcDbEntity
  8
0
  6
CONTINUOUS
 62
    7
370
   -1
100
AcDbSpline
210
0
220
0
230
0
 70
    8
 71
    3
 72
   15
 73
   11
 74
    0
 42
1e-07
 43
1e-07
 40
0
 40
0
 40
0
 40
0
 40
0.125
 40
0.25
 40
0.375
 40
0.5
 40
0.625
 40
0.75
 40
0.875
 40
1
 40
1
 40
1
 40
1
 10
1840.2364120844
 20
-509.2988257931
 30
0
 10
1838.3441797876
 20
-509.2988257931
 30
0
 10
1834.8173194182
 20
-509.4112203138
 30
0
 10
1829.9354071565
 20
-509.8124148546
 30
0
 10
1825.8097850364
 20
-510.328834089
 30
0
 10
1822.3629449065
 20
-510.9031914218
 30
0
 10
1819.4896944006
 20
-511.5049233813
 30
0
 10
1817.1154557986
 20
-512.1185620773
 30
0
 10
1815.1961910445
 20
-512.7382746562
 30
0
 10
1814.0794603781
 20
-513.1946797776
 30
0
 10
1813.5990826054
 20
-513.4317111399
 30
0
  0
SPLINE
  5
2A8
100
AcDbEntity
  8
0
  6
CONTINUOUS
 62
    7
370
   -1
100
AcDbSpline
210
0
220
0
230
0
 70
    8
 71
    3
 72
   17
 73
   13
 74
    0
 42
1e-07
 43
1e-07
 40
0
 40
0
 40
0
 40
0
 40
0.1
 40
0.2
 40
0.3
 40
0.4
 40
0.5
 40
0.6000000000000001
 40
0.7000000000000001
 40
0.8
 40
0.9
 40
1
 40
1
 40
1
 40
1
 10
2249.9107179543
 20
-544.7328593713
 30
0
 10
2247.8267761489
 20
-543.9843744876
 30
0
 10
2243.2141978695
 20
-542.419846771
 30
0
 10
2235.598136917
 20
-539.95395846
 30
0
 10
2226.6064470649
 20
-537.0516664067
 30
0
 10
2218.2238750114
 20
-534.2710470007
 30
0
 10
2210.7659406883
 20
-531.7099956392
 30
0
 10
2202.2014873187
 20
-528.6629922586
 30
0
 10
2190.3954984629
 20
-524.1804046015
 30
0
 10
2177.9125368563
 20
-518.938746039
 30
0
 10
2167.0571349879
 20
-513.8184989382
 30
0
 10
2161.3434256353
 20
-510.8767375658
 30
0
 10
2158.4119298903
 20
-509.2988257931
 30
0
  0
SPLINE
  5
2A9
100
AcDbEntity
  8
0
  6
CONTINUOUS
 62
    7
370
   -1
100
AcDbSpline
210
0
220
0
230
0
 70
    8
 71
    3
 72
    9
 73
    5
 74
    0
 42
1e-07
 43
1e-07
 40
0
 40
0
 40
0
 40
0
 40
0.5
 40
1
 40
1
 40
1
 40
1
 10
2267.134096753
 20
-553.8709536301
 30
0
 10
2266.8697080507
 20
-553.6628127117
 30
0
 10
2265.8261784067
 20
-552.8639966141
 30
0
 10
2264.7447271958
 20
-552.115730421
 30
0
 10
2263.9286755735
 20
-551.577525908
 30
0
  0
SPLINE
  5
2AA
100
AcDbEntity
  8
0
  6
CONTINUOUS
 62
    7
370
   -1
100
AcDbSpline
210
0
220
0
230
0
 70
    8
 71
    3
 72
   10
 73
    6
 74
    0
 42
1e-07
 43
1e-07
 40
0
 40
0
 40
0
 40
0
 40
0.3333333333333333
 40
0.6666666666666666
 40
1
 40
1
 40
1
 40
1
 10
2248.3315329847
 20
-240.5618490214
 30
0
 10
2248.3675531506
 20
-239.829669307
 30
0
 10
2248.4944710936
 20
-238.3978556954
 30
0
 10
2248.9658894717
 20
-235.6571548692
 30
0
 10
2249.5488865251
 20
-233.6871505022
 30
0
 10
2250.0095170145
 20
-232.4254742164
 30
0
  0
SPLINE
  5
2AB
100
AcDbEntity
  8
0
  6
CONTINUOUS
 62
    7
370
   -1
100
AcDbSpline
210
0
220
0
230
0
 70
    8
 71
    3
 72
   20
 73
   16
 74
    0
 42
1e-07
 43
1e-07
 40
0
 40
0
 40
0
 40
0
 40
0.07692307692307693
 40
0.1538461538461539
 40
0.2307692307692308
 40
0.3076923076923077
 40
0.3846153846153846
 40
0.4615384615384616
 40
0.5384615384615385
 40
0.6153846153846154
 40
0.6923076923076923
 40
0.7692307692307693
 40
0.8461538461538463
 40
0.9230769230769231
 40
1
 40
1
 40
1
 40
1
 10
1699.9870816661
 20
-242.3612186813
 30
0
 10
1699.9870816843
 20
-239.7572021857
 30
0
 10
1700.4972793385
 20
-234.5341393786
 30
0
 10
1702.4167591565
 20
-228.2639436226
 30
0
 10
1704.6566021137
 20
-223.5481508885
 30
0
 10
1706.6750855314
 20
-220.1869420716
 30
0
 10
1709.0151140833
 20
-217.0399319509
 30
0
 10
1711.6583004166
 20
-214.1406761092
 30
0
 10
1714.5733180951
 20
-211.5123421753
 30
0
 10
1717.730886267
 20
-209.178362491
 30
0
 10
1721.1013331923
 20
-207.1616239808
 30
0
 10
1724.6554665274
 20
-205.4875058981
 30
0
 10
1728.3589477303
 20
-204.1713225875
 30
0
 10
1733.4386603776
 20
-202.9038718945
 30
0
 10
1737.3745820542
 20
-202.5122114944
 30
0
 10
1739.9884547455
 20
-202.5121937875
 30
0
  0
SPLINE
  5
2AC
100
AcDbEntity
  8
0
  6
CONTINUOUS
 62
    7
370
   -1
100
AcDbSpline
210
0
220
0
230
0
 70
    8
 71
    3
 72
    9
 73
    5
 74
    0
 42
1e-07
 43
1e-07
 40
0
 40
0
 40
0
 40
0
 40
0.5
 40
1
 40
1
 40
1
 40
1
 10
1739.988722086
 20
-232.4232536007
 30
0
 10
1736.3272389798
 20
-232.4232536007
 30
0
 10
1729.3947715233
 20
-233.263176884
 30
0
 10
1722.8659057966
 20
-235.7061984182
 30
0
 10
1719.9879018761
 20
-237.1976842899
 30
0
  0
SPLINE
  5
2AD
100
AcDbEntity
  8
0
  6
CONTINUOUS
 62
    7
370
   -1
100
AcDbSpline
210
0
220
0
230
0
 70
    8
 71
    3
 72
   20
 73
   16
 74
    0
 42
1e-07
 43
1e-07
 40
0
 40
0
 40
0
 40
0
 40
0.07692307692307693
 40
0.1538461538461539
 40
0.2307692307692308
 40
0.3076923076923077
 40
0.3846153846153846
 40
0.4615384615384616
 40
0.5384615384615385
 40
0.6153846153846154
 40
0.6923076923076923
 40
0.7692307692307693
 40
0.8461538461538463
 40
0.9230769230769231
 40
1
 40
1
 40
1
 40
1
 10
2159.7800136181
 20
-471.1982201206
 30
0
 10
2165.6548224487
 20
-459.733240435
 30
0
 10
2174.044749235
 20
-442.4898306342
 30
0
 10
2184.4984896795
 20
-419.4109245705
 30
0
 10
2194.1637976584
 20
-397.0838792701
 30
0
 10
2205.1450453589
 20
-370.1269193484
 30
0
 10
2215.1926291951
 20
-343.9307257712
 30
0
 10
2222.5961309552
 20
-324.3259784428
 30
0
 10
2227.650726651
 20
-310.9757031329
 30
0
 10
2232.3657197875
 20
-298.7397771618
 30
0
 10
2236.7462490502
 20
-287.7257712914
 30
0
 10
2240.7955773438
 20
-277.9776872864
 30
0
 10
2244.5183951875
 20
-269.4704011537
 30
0
 10
2247.9104049476
 20
-262.1116325321
 30
0
 10
2250.0910173129
 20
-257.5920520128
 30
0
 10
2251.1182236713
 20
-255.4982595594
 30
0
  0
LINE
  5
2AE
100
AcDbEntity
  8
0
  6
CONTINUOUS
 62
    7
370
   -1
100
AcDbLine
 10
2251.1182236713
 20
-255.4982595594
 11
2251.3735318317
 21
-254.978536551
  0
SPLINE
  5
2AF
100
AcDbEntity
  8
0
  6
CONTINUOUS
 62
    7
370
   -1
100
AcDbSpline
210
0
220
0
230
0
 70
    8
 71
    3
 72
   25
 73
   21
 74
    0
 42
1e-07
 43
1e-07
 40
0
 40
0
 40
0
 40
0
 40
0.05555555555555555
 40
0.1111111111111111
 40
0.1666666666666667
 40
0.2222222222222222
 40
0.2777777777777778
 40
0.3333333333333333
 40
0.3888888888888888
 40
0.4444444444444444
 40
0.5
 40
0.5555555555555556
 40
0.611111111111111
 40
0.6666666666666666
 40
0.7222222222222222
 40
0.7777777777777777
 40
0.8333333333333333
 40
0.8888888888888888
 40
0.9444444444444444
 40
1
 40
1
 40
1
 40
1
 10
2127.0049868749
 20
-253.074521358
 30
0
 10
2125.5768735866
 20
-255.1083480291
 30
0
 10
2122.4857168471
 20
-259.4708070597
 30
0
 10
2117.5796905609
 20
-266.5553049423
 30
0
 10
2112.1615117233
 20
-274.7659772715
 30
0
 10
2107.4125514601
 20
-282.4064495855
 30
0
 10
2103.4034901329
 20
-289.1624783706
 30
0
 10
2100.2133438576
 20
-294.7022083614
 30
0
 10
2096.9309224615
 20
-300.5673583381
 30
0
 10
2092.344510262
 20
-308.9912433265
 30
0
 10
2086.4339467137
 20
-320.257191253
 30
0
 10
2079.1886987807
 20
-334.5941113604
 30
0
 10
2071.6695991695
 20
-349.8631128475
 30
0
 10
2063.8936712595
 20
-365.9046676154
 30
0
 10
2055.8739261677
 20
-382.5684052932
 30
0
 10
2047.6216764427
 20
-399.7221156378
 30
0
 10
2039.1459050781
 20
-417.2540229985
 30
0
 10
2030.4559441571
 20
-435.0735215903
 30
0
 10
2021.5591993096
 20
-453.1071245512
 30
0
 10
2015.5198571913
 20
-465.1728503139
 30
0
 10
2012.4703938362
 20
-471.2325601576
 30
0
  0
SPLINE
  5
2B0
100
AcDbEntity
  8
0
  6
CONTINUOUS
 62
    7
370
   -1
100
AcDbSpline
210
0
220
0
230
0
 70
    8
 71
    3
 72
   23
 73
   19
 74
    0
 42
1e-07
 43
1e-07
 40
0
 40
0
 40
0
 40
0
 40
0.0625
 40
0.125
 40
0.1875
 40
0.25
 40
0.3125
 40
0.375
 40
0.4375
 40
0.5
 40
0.5625
 40
0.625
 40
0.6875
 40
0.75
 40
0.8125
 40
0.875
 40
0.9375
 40
1
 40
1
 40
1
 40
1
 10
1987.5283757956
 20
-471.2325601576
 30
0
 10
1984.4801654574
 20
-465.1722430302
 30
0
 10
1978.4393045528
 20
-453.107271355
 30
0
 10
1969.5427710157
 20
-435.0735620433
 30
0
 10
1960.852926328
 20
-417.2539846054
 30
0
 10
1952.3770613179
 20
-399.7221343304
 30
0
 10
1944.1248556303
 20
-382.5683980974
 30
0
 10
1936.1050978261
 20
-365.9046686868
 30
0
 10
1928.3291562215
 20
-349.863117694
 30
0
 10
1920.8101257177
 20
-334.5940910061
 30
0
 10
1913.5646337693
 20
-320.2572613007
 30
0
 10
1906.6137152321
 20
-307.0064561187
 30
0
 10
1899.9826953334
 20
-294.9681943402
 30
0
 10
1893.7110587673
 20
-284.2169694481
 30
0
 10
1887.8373708738
 20
-274.7659243955
 30
0
 10
1882.4190309337
 20
-266.5553359186
 30
0
 10
1877.5130252195
 20
-259.4708300617
 30
0
 10
1874.4220784789
 20
-255.1082294044
 30
0
 10
1872.9937827575
 20
-253.074521358
 30
0
  0
LINE
  5
2B1
100
AcDbEntity
  8
0
  6
CONTINUOUS
 62
    7
370
   -1
100
AcDbLine
 10
1748.6253686597
 20
-254.9789531452
 11
1748.8808038559
 21
-255.4982836434
  0
SPLINE
  5
2B2
100
AcDbEntity
  8
0
  6
CONTINUOUS
 62
    7
370
   -1
100
AcDbSpline
210
0
220
0
230
0
 70
    8
 71
    3
 72
   23
 73
   19
 74
    0
 42
1e-07
 43
1e-07
 40
0
 40
0
 40
0
 40
0
 40
0.0625
 40
0.125
 40
0.1875
 40
0.25
 40
0.3125
 40
0.375
 40
0.4375
 40
0.5
 40
0.5625
 40
0.625
 40
0.6875
 40
0.75
 40
0.8125
 40
0.875
 40
0.9375
 40
1
 40
1
 40
1
 40
1
 10
1748.8808038559
 20
-255.4982836434
 30
0
 10
1749.3773288523
 20
-256.5095189251
 30
0
 10
1750.3977974392
 20
-258.6092655054
 30
0
 10
1751.9637948388
 20
-261.8855000478
 30
0
 10
1753.6131110301
 20
-265.4161698479
 30
0
 10
1756.0065491794
 20
-270.6737032701
 30
0
 10
1759.2136832261
 20
-278.0023302843
 30
0
 10
1763.2678732231
 20
-287.7618144275
 30
0
 10
1767.6523941922
 20
-298.7891836592
 30
0
 10
1772.3709903214
 20
-311.0368759086
 30
0
 10
1777.4298561575
 20
-324.3950176501
 30
0
 10
1782.8368699354
 20
-338.71522707
 30
0
 10
1788.6024365821
 20
-353.833503446
 30
0
 10
1794.7407623843
 20
-369.5939483163
 30
0
 10
1801.2615939129
 20
-385.8594290974
 30
0
 10
1810.5951580793
 20
-408.3153364281
 30
0
 10
1823.2762778398
 20
-436.9884428102
 30
0
 10
1834.360995425
 20
-459.7691094231
 30
0
 10
1840.2364120844
 20
-471.2325601576
 30
0
  0
SPLINE
  5
2B3
100
AcDbEntity
  8
0
  6
CONTINUOUS
 62
    7
370
   -1
100
AcDbSpline
210
0
220
0
230
0
 70
    8
 71
    3
 72
   16
 73
   12
 74
    0
 42
1e-07
 43
1e-07
 40
0
 40
0
 40
0
 40
0
 40
0.1111111111111111
 40
0.2222222222222222
 40
0.3333333333333333
 40
0.4444444444444444
 40
0.5555555555555556
 40
0.6666666666666666
 40
0.7777777777777777
 40
0.8888888888888888
 40
1
 40
1
 40
1
 40
1
 10
2159.7800136179
 20
-471.1982201226
 30
0
 10
2162.6714780449
 20
-471.2457922927
 30
0
 10
2167.7643036082
 20
-471.4207268507
 30
0
 10
2176.1683583882
 20
-471.9268486138
 30
0
 10
2184.1901773334
 20
-472.6174974149
 30
0
 10
2192.031202062
 20
-473.5054921285
 30
0
 10
2198.2331823651
 20
-474.3546240021
 30
0
 10
2203.3106428893
 20
-475.1718678443
 30
0
 10
2207.4893605155
 20
-475.9578125864
 30
0
 10
2210.8818563692
 20
-476.7109117283
 30
0
 10
2212.8809605154
 20
-477.2471241158
 30
0
 10
2213.7561224582
 20
-477.5182706528
 30
0
  0
SPLINE
  5
2B4
100
AcDbEntity
  8
0
  6
CONTINUOUS
 62
    7
370
   -1
100
AcDbSpline
210
0
220
0
230
0
 70
    8
 71
    3
 72
   24
 73
   20
 74
    0
 42
1e-07
 43
1e-07
 40
0
 40
0
 40
0
 40
0
 40
0.05882352941176471
 40
0.1176470588235294
 40
0.1764705882352941
 40
0.2352941176470588
 40
0.2941176470588235
 40
0.3529411764705882
 40
0.4117647058823529
 40
0.4705882352941176
 40
0.5294117647058824
 40
0.5882352941176471
 40
0.6470588235294118
 40
0.7058823529411764
 40
0.7647058823529411
 40
0.8235294117647058
 40
0.8823529411764706
 40
0.9411764705882353
 40
1
 40
1
 40
1
 40
1
 10
2159.7800136214
 20
-471.1982201227
 30
0
 10
2159.9287416997
 20
-471.7086804429
 30
0
 10
2160.206097916
 20
-472.8800916352
 30
0
 10
2160.5684324783
 20
-474.8445933705
 30
0
 10
2160.9130709285
 20
-477.1842535245
 30
0
 10
2161.354686447
 20
-480.8681529197
 30
0
 10
2161.7863595065
 20
-485.9018353941
 30
0
 10
2162.0532561036
 20
-491.0928436497
 30
0
 10
2162.1580775933
 20
-495.2658919631
 30
0
 10
2162.1758449014
 20
-498.222229145
 30
0
 10
2162.134193532
 20
-500.951197787
 30
0
 10
2162.0338275115
 20
-503.3826213271
 30
0
 10
2161.8987732265
 20
-505.1925581628
 30
0
 10
2161.7575561157
 20
-506.4440229251
 30
0
 10
2161.6447645667
 20
-507.2227379626
 30
0
 10
2161.5205394815
 20
-507.8865417355
 30
0
 10
2161.3861840312
 20
-508.4324646621
 30
0
 10
2161.2431395628
 20
-508.8573438628
 30
0
 10
2161.1268669734
 20
-509.0933666235
 30
0
 10
2161.0628653856
 20
-509.184995574
 30
0
  0
SPLINE
  5
2B5
100
AcDbEntity
  8
0
  6
CONTINUOUS
 62
    7
370
   -1
100
AcDbSpline
210
0
220
0
230
0
 70
    8
 71
    3
 72
   27
 73
   23
 74
    0
 42
1e-07
 43
1e-07
 40
0
 40
0
 40
0
 40
0
 40
0.05
 40
0.1
 40
0.15
 40
0.2
 40
0.25
 40
0.3
 40
0.35
 40
0.4
 40
0.45
 40
0.5
 40
0.55
 40
0.6000000000000001
 40
0.65
 40
0.7000000000000001
 40
0.75
 40
0.8
 40
0.8500000000000001
 40
0.9
 40
0.9500000000000001
 40
1
 40
1
 40
1
 40
1
 10
2013.7866756361
 20
-509.2982679275
 30
0
 10
2013.6574647587
 20
-509.2273751677
 30
0
 10
2013.3981957947
 20
-509.0307389607
 30
0
 10
2013.0467785502
 20
-508.6354159656
 30
0
 10
2012.7031668778
 20
-508.1203987575
 30
0
 10
2012.3694965541
 20
-507.487410324
 30
0
 10
2012.0480408983
 20
-506.7387542137
 30
0
 10
2011.6167884329
 20
-505.5315969419
 30
0
 10
2011.1348470126
 20
-503.7597295792
 30
0
 10
2010.6571162083
 20
-501.3512644851
 30
0
 10
2010.2690124944
 20
-498.6231910864
 30
0
 10
2009.9853497663
 20
-495.6452626667
 30
0
 10
2009.8133288088
 20
-492.4963126154
 30
0
 10
2009.7606133964
 20
-489.2627292472
 30
0
 10
2009.8270982228
 20
-486.0343881619
 30
0
 10
2010.0127596166
 20
-482.9010190392
 30
0
 10
2010.3089659995
 20
-479.9485398275
 30
0
 10
2010.7077476018
 20
-477.2541954973
 30
0
 10
2011.1954021469
 20
-474.886053761
 30
0
 10
2011.6862241987
 20
-473.1521238782
 30
0
 10
2012.1229727676
 20
-471.9791522221
 30
0
 10
2012.3522110364
 20
-471.4677318331
 30
0
 10
2012.4703938362
 20
-471.2329063194
 30
0
  0
SPLINE
  5
2B6
100
AcDbEntity
  8
0
  6
CONTINUOUS
 62
    7
370
   -1
100
AcDbSpline
210
0
220
0
230
0
 70
    8
 71
    3
 72
   11
 73
    7
 74
    0
 42
1e-07
 43
1e-07
 40
0
 40
0
 40
0
 40
0
 40
0.25
 40
0.5
 40
0.75
 40
1
 40
1
 40
1
 40
1
 10
2004.0276259526
 20
-503.5083456365
 30
0
 10
2004.838381851
 20
-504.0326568933
 30
0
 10
2006.2595850521
 20
-504.9285351253
 30
0
 10
2008.2972753241
 20
-506.1705666694
 30
0
 10
2010.7141674425
 20
-507.603649047
 30
0
 10
2012.5410207007
 20
-508.6305920866
 30
0
 10
2013.7586132885
 20
-509.2988257931
 30
0
  0
SPLINE
  5
2B7
100
AcDbEntity
  8
0
  6
CONTINUOUS
 62
    7
370
   -1
100
AcDbSpline
210
0
220
0
230
0
 70
    8
 71
    3
 72
    9
 73
    5
 74
    0
 42
1e-07
 43
1e-07
 40
0
 40
0
 40
0
 40
0
 40
0.5
 40
1
 40
1
 40
1
 40
1
 10
2283.6181363925
 20
-539.2836817235
 30
0
 10
2283.6081481174
 20
-539.4860276725
 30
0
 10
2283.5418879506
 20
-540.3082473330001
 30
0
 10
2283.3756959794
 20
-541.1210159938
 30
0
 10
2283.2081440725
 20
-541.719943389
 30
0
  0
SPLINE
  5
2B8
100
AcDbEntity
  8
0
  6
CONTINUOUS
 62
    7
370
   -1
100
AcDbSpline
210
0
220
0
230
0
 70
    8
 71
    3
 72
   11
 73
    7
 74
    0
 42
1e-07
 43
1e-07
 40
0
 40
0
 40
0
 40
0
 40
0.25
 40
0.5
 40
0.75
 40
1
 40
1
 40
1
 40
1
 10
1753.1555145144
 20
-548.2349629088
 30
0
 10
1753.1243110195
 20
-548.8639262937
 30
0
 10
1752.519902361
 20
-549.606126551
 30
0
 10
1751.7327699165
 20
-550.2985912665
 30
0
 10
1750.9950624039
 20
-550.878054997
 30
0
 10
1750.4021986173
 20
-551.2957563537
 30
0
 10
1749.9891372092
 20
-551.5776449072
 30
0
  0
SPLINE
  5
2B9
100
AcDbEntity
  8
0
  6
CONTINUOUS
 62
    7
370
   -1
100
AcDbSpline
210
0
220
0
230
0
 70
    8
 71
    3
 72
   20
 73
   16
 74
    0
 42
1e-07
 43
1e-07
 40
0
 40
0
 40
0
 40
0
 40
0.07692307692307693
 40
0.1538461538461539
 40
0.2307692307692308
 40
0.3076923076923077
 40
0.3846153846153846
 40
0.4615384615384616
 40
0.5384615384615385
 40
0.6153846153846154
 40
0.6923076923076923
 40
0.7692307692307693
 40
0.8461538461538463
 40
0.9230769230769231
 40
1
 40
1
 40
1
 40
1
 10
2260.0100475208
 20
-202.5121937866
 30
0
 10
2262.6239313096
 20
-202.5121937849
 30
0
 10
2266.5598725082
 20
-202.903831638
 30
0
 10
2271.6396138375
 20
-204.1712598122
 30
0
 10
2275.3431177075
 20
-205.487429799
 30
0
 10
2278.8972744031
 20
-207.1615378867
 30
0
 10
2282.2677445534
 20
-209.1782703913
 30
0
 10
2285.42533539
 20
-211.5122476834
 30
0
 10
2288.3403747986
 20
-214.1405825811
 30
0
 10
2290.9835815986
 20
-217.039842427
 30
0
 10
2293.3236288493
 20
-220.1868594706
 30
0
 10
2295.3421285746
 20
-223.548077948
 30
0
 10
2297.5819898759
 20
-228.2638864376
 30
0
 10
2299.5014859652
 20
-234.5341065202
 30
0
 10
2300.0116879634
 20
-239.7571914634
 30
0
 10
2300.0116879653
 20
-242.3612189316
 30
0
  0
SPLINE
  5
2BA
100
AcDbEntity
  8
0
  6
CONTINUOUS
 62
    7
370
   -1
100
AcDbSpline
210
0
220
0
230
0
 70
    8
 71
    3
 72
    9
 73
    5
 74
    0
 42
1e-07
 43
1e-07
 40
0
 40
0
 40
0
 40
0
 40
0.5
 40
1
 40
1
 40
1
 40
1
 10
2280.0108886583
 20
-237.1974862728
 30
0
 10
2280.184584354
 20
-237.7281194384
 30
0
 10
2280.8448699691
 20
-239.851254081
 30
0
 10
2281.3650407382
 20
-242.0210312554
 30
0
 10
2281.6350276121
 20
-243.6643463045
 30
0
  0
SPLINE
  5
2BB
100
AcDbEntity
  8
0
  6
CONTINUOUS
 62
    7
370
   -1
100
AcDbSpline
210
0
220
0
230
0
 70
    8
 71
    3
 72
   14
 73
   10
 74
    0
 42
1e-07
 43
1e-07
 40
0
 40
0
 40
0
 40
0
 40
0.1428571428571428
 40
0.2857142857142857
 40
0.4285714285714285
 40
0.5714285714285714
 40
0.7142857142857142
 40
0.8571428571428571
 40
1
 40
1
 40
1
 40
1
 10
2250.0096324222
 20
-551.5776449072
 30
0
 10
2249.596562568
 20
-551.2957505897
 30
0
 10
2249.0034818662
 20
-550.8763774491
 30
0
 10
2248.267095459
 20
-550.3015181292
 30
0
 10
2247.800284
 20
-549.8894185852
 30
0
 10
2247.4104785611
 20
-549.4802384069
 30
0
 10
2247.1085869466
 20
-549.0716360498
 30
0
 10
2246.9077527905
 20
-548.6586092758999
 30
0
 10
2246.8499571596
 20
-548.3720795711
 30
0
 10
2246.843209523
 20
-548.2341195438
 30
0
  0
SPLINE
  5
2BC
100
AcDbEntity
  8
0
  6
CONTINUOUS
 62
    7
370
   -1
100
AcDbSpline
210
0
220
0
230
0
 70
    8
 71
    3
 72
   10
 73
    6
 74
    0
 42
1e-07
 43
1e-07
 40
0
 40
0
 40
0
 40
0
 40
0.3333333333333333
 40
0.6666666666666666
 40
1
 40
1
 40
1
 40
1
 10
1986.2512440308
 20
-509.2988257931
 30
0
 10
1987.0596193268
 20
-508.8549829238
 30
0
 10
1989.0965537907
 20
-507.720096195
 30
0
 10
1992.345878637
 20
-505.8009633526
 30
0
 10
1994.7653087433
 20
-504.291799294
 30
0
 10
1995.9755460918
 20
-503.5083456365
 30
0
  0
SPLINE
  5
2BD
100
AcDbEntity
  8
0
  6
CONTINUOUS
 62
    7
370
   -1
100
AcDbSpline
210
0
220
0
230
0
 70
    8
 71
    3
 72
   27
 73
   23
 74
    0
 42
1e-07
 43
1e-07
 40
0
 40
0
 40
0
 40
0
 40
0.05
 40
0.1
 40
0.15
 40
0.2
 40
0.25
 40
0.3
 40
0.35
 40
0.4
 40
0.45
 40
0.5
 40
0.55
 40
0.6000000000000001
 40
0.65
 40
0.7000000000000001
 40
0.75
 40
0.8
 40
0.8500000000000001
 40
0.9
 40
0.9500000000000001
 40
1
 40
1
 40
1
 40
1
 10
1987.5283757956
 20
-471.2329063055
 30
0
 10
1987.6465075535
 20
-471.4677504211
 30
0
 10
1987.8756972049
 20
-471.9791947497
 30
0
 10
1988.3124791673
 20
-473.1521921804
 30
0
 10
1988.8034522057
 20
-474.8861541437
 30
0
 10
1989.2909496948
 20
-477.2544160659
 30
0
 10
1989.6895412797
 20
-479.9488541666
 30
0
 10
1989.9857982343
 20
-482.9013909842
 30
0
 10
1990.1716096576
 20
-486.0348023339
 30
0
 10
1990.2381469399
 20
-489.2631742325
 30
0
 10
1990.1854414578
 20
-492.4967541295
 30
0
 10
1990.0134298091
 20
-495.645680828
 30
0
 10
1989.7298011122
 20
-498.6235580582
 30
0
 10
1989.3417630656
 20
-501.3515728889
 30
0
 10
1988.8640517992
 20
-503.7599684866
 30
0
 10
1988.3820634394
 20
-505.5317688416
 30
0
 10
1987.950739529
 20
-506.7388676243
 30
0
 10
1987.6292345688
 20
-507.4874912155
 30
0
 10
1987.2955123638
 20
-508.1204484243
 30
0
 10
1986.951869625
 20
-508.6354313256
 30
0
 10
1986.6004777543
 20
-509.0307206995
 30
0
 10
1986.3412672632
 20
-509.2273648133
 30
0
 10
1986.2120939958
 20
-509.2982679236
 30
0
  0
LINE
  5
2BE
100
AcDbEntity
  8
0
  6
CONTINUOUS
 62
    7
370
   -1
100
AcDbLine
 10
2000.6734542796
 20
-501.2683519615
 11
1999.9993848131
 21
-500.8025455112
  0
SPLINE
  5
2BF
100
AcDbEntity
  8
0
  6
CONTINUOUS
 62
    7
370
   -1
100
AcDbSpline
210
0
220
0
230
0
 70
    8
 71
    3
 72
   18
 73
   14
 74
    0
 42
1e-07
 43
1e-07
 40
0
 40
0
 40
0
 40
0
 40
0.09090909090909091
 40
0.1818181818181818
 40
0.2727272727272727
 40
0.3636363636363636
 40
0.4545454545454546
 40
0.5454545454545454
 40
0.6363636363636364
 40
0.7272727272727273
 40
0.8181818181818182
 40
0.9090909090909092
 40
1
 40
1
 40
1
 40
1
 10
2213.754883645
 20
-477.5207555277
 30
0
 10
2213.0126292772
 20
-478.9567247477
 30
0
 10
2211.2661069003
 20
-481.8542521237
 30
0
 10
2208.025236795
 20
-486.0552428827
 30
0
 10
2204.0043903039
 20
-490.2575197947
 30
0
 10
2199.0921129528
 20
-494.4451534605
 30
0
 10
2194.2667404168
 20
-497.7870047795
 30
0
 10
2189.7831397286
 20
-500.4094221859
 30
0
 10
2185.8424385801
 20
-502.4370255957
 30
0
 10
2181.2910708978
 20
-504.4323347205
 30
0
 10
2175.8700250845
 20
-506.3868166293
 30
0
 10
2169.074874327
 20
-508.2082257504
 30
0
 10
2163.9580366622
 20
-508.9774573961
 30
0
 10
2161.0628655149
 20
-509.1849955648
 30
0
  0
SPLINE
  5
2C0
100
AcDbEntity
  8
0
  6
CONTINUOUS
 62
    7
370
   -1
100
AcDbSpline
210
0
220
0
230
0
 70
    8
 71
    3
 72
   15
 73
   11
 74
    0
 42
1e-07
 43
1e-07
 40
0
 40
0
 40
0
 40
0
 40
0.125
 40
0.25
 40
0.375
 40
0.5
 40
0.625
 40
0.75
 40
0.875
 40
1
 40
1
 40
1
 40
1
 10
1794.0731463447
 20
-493.5478416705
 30
0
 10
1794.1026151723
 20
-494.8307734846
 30
0
 10
1794.406956383
 20
-497.4009112677
 30
0
 10
1795.577207534
 20
-501.0992886311
 30
0
 10
1797.4177654998
 20
-504.5180012311
 30
0
 10
1799.8610224265
 20
-507.5282713704
 30
0
 10
1802.8162564839
 20
-510.0187476482
 30
0
 10
1806.17461302
 20
-511.8965935814
 30
0
 10
1809.8098774438
 20
-513.0905851726
 30
0
 10
1812.3386272474
 20
-513.4016873976
 30
0
 10
1813.5990826055
 20
-513.4317111399
 30
0
  0
SPLINE
  5
2C1
100
AcDbEntity
  8
0
  6
CONTINUOUS
 62
    7
370
   -1
100
AcDbSpline
210
0
220
0
230
0
 70
    8
 71
    3
 72
   11
 73
    7
 74
    0
 42
1e-07
 43
1e-07
 40
0
 40
0
 40
0
 40
0
 40
0.25
 40
0.5
 40
0.75
 40
1
 40
1
 40
1
 40
1
 10
2283.2081440725
 20
-541.719943389
 30
0
 10
2283.0487894225
 20
-542.2895690482
 30
0
 10
2282.6518561336
 20
-543.4338103266
 30
0
 10
2281.9008234792
 20
-545.1081364257
 30
0
 10
2281.0130422851
 20
-546.7503208902
 30
0
 10
2280.3543854691
 20
-547.8116697304
 30
0
 10
2280.0109074501
 20
-548.3320845155
 30
0
  0
SPLINE
  5
2C2
100
AcDbEntity
  8
0
  6
CONTINUOUS
 62
    7
370
   -1
100
AcDbSpline
210
0
220
0
230
0
 70
    8
 71
    3
 72
   10
 73
    6
 74
    0
 42
1e-07
 43
1e-07
 40
0
 40
0
 40
0
 40
0
 40
0.3333333333333333
 40
0.6666666666666666
 40
1
 40
1
 40
1
 40
1
 10
1749.9892526169
 20
-232.4254742164
 30
0
 10
1750.449875041
 20
-233.6871284112
 30
0
 10
1751.0328772973
 20
-235.6571015854
 30
0
 10
1751.5043018837
 20
-238.3977862498
 30
0
 10
1751.6312088718
 20
-239.8296081153
 30
0
 10
1751.667235689
 20
-240.5617991986
 30
0
  0
SPLINE
  5
2C3
100
AcDbEntity
  8
0
  6
CONTINUOUS
 62
    7
370
   -1
100
AcDbSpline
210
0
220
0
230
0
 70
    8
 71
    3
 72
   19
 73
   15
 74
    0
 42
1e-07
 43
1e-07
 40
0
 40
0
 40
0
 40
0
 40
0.08333333333333333
 40
0.1666666666666667
 40
0.25
 40
0.3333333333333333
 40
0.4166666666666666
 40
0.5
 40
0.5833333333333333
 40
0.6666666666666666
 40
0.75
 40
0.8333333333333333
 40
0.9166666666666666
 40
1
 40
1
 40
1
 40
1
 10
1794.0730083804
 20
-493.54813832
 30
0
 10
1794.6097132954
 20
-492.3940913461
 30
0
 10
1796.0283716563
 20
-490.0649976801
 30
0
 10
1798.887257118
 20
-486.7696407944
 30
0
 10
1801.9189441651
 20
-484.1609771844
 30
0
 10
1804.793808456
 20
-482.1085402665
 30
0
 10
1807.2898456853
 20
-480.5372028555
 30
0
 10
1810.0741201037
 20
-479.0003112863
 30
0
 10
1813.1737307535
 20
-477.5056408584
 30
0
 10
1816.6264978429
 20
-476.0739297674
 30
0
 10
1820.4705642514
 20
-474.7229841968
 30
0
 10
1824.7507083458
 20
-473.4877318566
 30
0
 10
1831.3371563326
 20
-472.016198309
 30
0
 10
1836.5921572521
 20
-471.3882304757
 30
0
 10
1840.2364120844
 20
-471.2325601576
 30
0
  0
SPLINE
  5
2C4
100
AcDbEntity
  8
0
  6
CONTINUOUS
 62
    7
370
   -1
100
AcDbSpline
210
0
220
0
230
0
 70
    8
 71
    3
 72
   23
 73
   19
 74
    0
 42
1e-07
 43
1e-07
 40
0
 40
0
 40
0
 40
0
 40
0.0625
 40
0.125
 40
0.1875
 40
0.25
 40
0.3125
 40
0.375
 40
0.4375
 40
0.5
 40
0.5625
 40
0.625
 40
0.6875
 40
0.75
 40
0.8125
 40
0.875
 40
0.9375
 40
1
 40
1
 40
1
 40
1
 10
2300.0114958833
 20
-277.1035465763
 30
0
 10
2299.358815585
 20
-278.5569302138
 30
0
 10
2297.8904364517
 20
-281.6394164791
 30
0
 10
2295.4026542167
 20
-286.5615314908
 30
0
 10
2292.4942640853
 20
-292.2285909755
 30
0
 10
2289.1565646439
 20
-298.8490405806
 30
0
 10
2285.3870600713
 20
-306.6480697382
 30
0
 10
2281.1842160002
 20
-315.8314977306
 30
0
 10
2276.5518007278
 20
-326.5506121108
 30
0
 10
2271.4867069258
 20
-338.864336514
 30
0
 10
2265.9820196249
 20
-352.7263560478
 30
0
 10
2260.0268245581
 20
-367.9944091076
 30
0
 10
2253.6033304225
 20
-384.4656053261
 30
0
 10
2246.6965060043
 20
-401.9154749701
 30
0
 10
2239.282116551
 20
-420.1304069898
 30
0
 10
2231.3374961146
 20
-438.9266804773
 30
0
 10
2222.8422995244
 20
-458.1534650517
 30
0
 10
2216.8532811507
 20
-471.0345338531
 30
0
 10
2213.7557575142
 20
-477.5190437415
 30
0
  0
SPLINE
  5
2C5
100
AcDbEntity
  8
0
  6
CONTINUOUS
 62
    7
370
   -1
100
AcDbSpline
210
0
220
0
230
0
 70
    8
 71
    3
 72
   19
 73
   15
 74
    0
 42
1e-07
 43
1e-07
 40
0
 40
0
 40
0
 40
0
 40
0.08333333333333333
 40
0.1666666666666667
 40
0.25
 40
0.3333333333333333
 40
0.4166666666666666
 40
0.5
 40
0.5833333333333333
 40
0.6666666666666666
 40
0.75
 40
0.8333333333333333
 40
0.9166666666666666
 40
1
 40
1
 40
1
 40
1
 10
1710.3181114591
 20
-524.6681687864
 30
0
 10
1712.2863450464
 20
-523.9645547640999
 30
0
 10
1716.6170676095
 20
-522.501010327
 30
0
 10
1723.72949631
 20
-520.2015236271
 30
0
 10
1732.0557405391
 20
-517.5249786302001
 30
0
 10
1739.7826283958
 20
-514.9981502459
 30
0
 10
1746.6226409055
 20
-512.6875802937
 30
0
 10
1752.2794730032
 20
-510.7198105994
 30
0
 10
1758.2998603601
 20
-508.553322779
 30
0
 10
1764.6973798515
 20
-506.1672049619
 30
0
 10
1771.4827564786
 20
-503.5222042016
 30
0
 10
1778.6649416912
 20
-500.565542913
 30
0
 10
1786.2592187575
 20
-497.2487235601
 30
0
 10
1791.4269728876
 20
-494.83822652
 30
0
 10
1794.0731463446
 20
-493.5478416705
 30
0
  0
SPLINE
  5
2C6
100
AcDbEntity
  8
0
  6
CONTINUOUS
 62
    7
370
   -1
100
AcDbSpline
210
0
220
0
230
0
 70
    8
 71
    3
 72
   10
 73
    6
 74
    0
 42
1e-07
 43
1e-07
 40
0
 40
0
 40
0
 40
0
 40
0.3333333333333333
 40
0.6666666666666666
 40
1
 40
1
 40
1
 40
1
 10
1702.0593962388
 20
-528.0219116668
 30
0
 10
1702.6297068182
 20
-527.7408045995001
 30
0
 10
1703.847304086
 20
-527.1781159217001
 30
0
 10
1706.5893645678
 20
-526.0293250682
 30
0
 10
1708.7813003181
 20
-525.2166387677
 30
0
 10
1710.3181114627
 20
-524.6681678666
 30
0
  0
SPLINE
  5
2C7
100
AcDbEntity
  8
0
  6
CONTINUOUS
 62
    7
370
   -1
100
AcDbSpline
210
0
220
0
230
0
 70
    8
 71
    3
 72
    9
 73
    5
 74
    0
 42
1e-07
 43
1e-07
 40
0
 40
0
 40
0
 40
0
 40
0.5
 40
1
 40
1
 40
1
 40
1
 10
1708.7122040702
 20
-294.6308162651
 30
0
 10
1707.5091581643
 20
-292.2461527241
 30
0
 10
1705.2713986688
 20
-287.8775611861
 30
0
 10
1703.0436300379
 20
-283.5034452249
 30
0
 10
1702.0593962344
 20
-281.4940365516
 30
0
  0
SPLINE
  5
2C8
100
AcDbEntity
  8
0
  6
CONTINUOUS
 62
    7
370
   -1
100
AcDbSpline
210
0
220
0
230
0
 70
    8
 71
    3
 72
   19
 73
   15
 74
    0
 42
1e-07
 43
1e-07
 40
0
 40
0
 40
0
 40
0
 40
0.08333333333333333
 40
0.1666666666666667
 40
0.25
 40
0.3333333333333333
 40
0.4166666666666666
 40
0.5
 40
0.5833333333333333
 40
0.6666666666666666
 40
0.75
 40
0.8333333333333333
 40
0.9166666666666666
 40
1
 40
1
 40
1
 40
1
 10
1794.0731699091
 20
-493.5483271654
 30
0
 10
1788.651072629
 20
-482.6964338555
 30
0
 10
1780.8936676165
 20
-466.4165450278
 30
0
 10
1771.186229099
 20
-444.6930114924
 30
0
 10
1762.2209865355
 20
-423.8355918384
 30
0
 10
1753.9014020633
 20
-403.4476647008
 30
0
 10
1746.1059329768
 20
-383.7161894423
 30
0
 10
1740.7095700957
 20
-369.8884397902
 30
0
 10
1735.6395393496
 20
-356.8796561533
 30
0
 10
1730.8871434399
 20
-344.8175723965
 30
0
 10
1726.4464821794
 20
-333.8047878295
 30
0
 10
1721.2316288234
 20
-321.3088242487
 30
0
 10
1715.46521955
 20
-308.3202498778
 30
0
 10
1710.8000640201
 20
-298.7656346439
 30
0
 10
1708.7122040702
 20
-294.6308162651
 30
0
  0
SPLINE
  5
2C9
100
AcDbEntity
  8
0
  6
CONTINUOUS
 62
    7
370
   -1
100
AcDbSpline
210
0
220
0
230
0
 70
    8
 71
    3
 72
   12
 73
    8
 74
    0
 42
1e-07
 43
1e-07
 40
0
 40
0
 40
0
 40
0
 40
0.2
 40
0.4
 40
0.6000000000000001
 40
0.8
 40
1
 40
1
 40
1
 40
1
 10
1719.9183665086
 20
-541.7400504457
 30
0
 10
1718.4663202422
 20
-540.8546045675999
 30
0
 10
1716.4414025311
 20
-539.2410816563
 30
0
 10
1714.2388719711
 20
-536.6359269884
 30
0
 10
1712.3859468851
 20
-533.769449735
 30
0
 10
1710.7650512892
 20
-529.7869697977
 30
0
 10
1710.311466689
 20
-526.3691317447
 30
0
 10
1710.3181114627
 20
-524.6681678666
 30
0
  0
SPLINE
  5
2CA
100
AcDbEntity
  8
0
  6
CONTINUOUS
 62
    7
370
   -1
100
AcDbSpline
210
0
220
0
230
0
 70
    8
 71
    3
 72
    9
 73
    5
 74
    0
 42
1e-07
 43
1e-07
 40
0
 40
0
 40
0
 40
0
 40
0.5
 40
1
 40
1
 40
1
 40
1
 10
1719.987901814
 20
-551.5767871739999
 30
0
 10
1719.6105892213
 20
-551.3289734159
 30
0
 10
1718.9035356324
 20
-550.8235169641
 30
0
 10
1718.2521676409
 20
-550.2460183022999
 30
0
 10
1717.9613143476
 20
-549.9478682162
 30
0
  0
SPLINE
  5
2CB
100
AcDbEntity
  8
0
  6
CONTINUOUS
 62
    7
370
   -1
100
AcDbSpline
210
0
220
0
230
0
 70
    8
 71
    3
 72
   22
 73
   18
 74
    0
 42
1e-07
 43
1e-07
 40
0
 40
0
 40
0
 40
0
 40
0.06666666666666667
 40
0.1333333333333333
 40
0.2
 40
0.2666666666666667
 40
0.3333333333333333
 40
0.4
 40
0.4666666666666667
 40
0.5333333333333333
 40
0.6
 40
0.6666666666666666
 40
0.7333333333333333
 40
0.8
 40
0.8666666666666667
 40
0.9333333333333333
 40
1
 40
1
 40
1
 40
1
 10
2213.7559885161
 20
-477.5212583084
 30
0
 10
2219.7866490887
 20
-480.2134698021
 30
0
 10
2228.6099982284
 20
-483.82633493
 30
0
 10
2240.0519324789
 20
-488.1292050568
 30
0
 10
2247.6803988584
 20
-490.8541973659
 30
0
 10
2254.7334811408
 20
-493.2651091009
 30
0
 10
2261.2308489025
 20
-495.4189367887
 30
0
 10
2267.1936768317
 20
-497.35600049
 30
0
 10
2272.6440376606
 20
-499.1015892718
 30
0
 10
2277.6011709883
 20
-500.6829835903
 30
0
 10
2282.0832550895
 20
-502.1263230184
 30
0
 10
2286.1077035455
 20
-503.4546280538
 30
0
 10
2289.6912922215
 20
-504.6883037141
 30
0
 10
2292.8506110203
 20
-505.8462737634
 30
0
 10
2295.6015648179
 20
-506.9488019219
 30
0
 10
2297.958853335
 20
-508.0172521659
 30
0
 10
2299.3742658582
 20
-508.772618587
 30
0
 10
2300.011481942
 20
-509.1550041554
 30
0
  0
SPLINE
  5
2CC
100
AcDbEntity
  8
0
  6
CONTINUOUS
 62
    7
370
   -1
100
AcDbSpline
210
0
220
0
230
0
 70
    8
 71
    3
 72
   15
 73
   11
 74
    0
 42
1e-07
 43
1e-07
 40
0
 40
0
 40
0
 40
0
 40
0.125
 40
0.25
 40
0.375
 40
0.5
 40
0.625
 40
0.75
 40
0.875
 40
1
 40
1
 40
1
 40
1
 10
1719.7645701928
 20
-237.8991243133
 30
0
 10
1718.269733783
 20
-238.7739568927
 30
0
 10
1715.390937265
 20
-240.719943503
 30
0
 10
1711.4865556681
 20
-244.1655913966
 30
0
 10
1708.0621371997
 20
-248.087657522
 30
0
 10
1705.186019785
 20
-252.425280354
 30
0
 10
1702.893644246
 20
-257.0956745238
 30
0
 10
1701.2215047183
 20
-262.0218205209
 30
0
 10
1700.2114208099
 20
-267.1233856697
 30
0
 10
1699.9870816557
 20
-270.5848643383
 30
0
 10
1699.9870816661
 20
-272.3135147659
 30
0
  0
SPLINE
  5
2CD
100
AcDbEntity
  8
0
  6
CONTINUOUS
 62
    7
370
   -1
100
AcDbSpline
210
0
220
0
230
0
 70
    8
 71
    3
 72
   11
 73
    7
 74
    0
 42
1e-07
 43
1e-07
 40
0
 40
0
 40
0
 40
0
 40
0.25
 40
0.5
 40
0.75
 40
1
 40
1
 40
1
 40
1
 10
1719.7635886843
 20
-237.8992159961
 30
0
 10
1719.7838934464
 20
-237.8342612344
 30
0
 10
1719.810285345
 20
-237.726655186
 30
0
 10
1719.8567648416
 20
-237.5871693488
 30
0
 10
1719.929520631
 20
-237.4247220585
 30
0
 10
1719.9571276184
 20
-237.2914672938
 30
0
 10
1719.9878809731
 20
-237.1974862728
 30
0
  0
SPLINE
  5
2CE
100
AcDbEntity
  8
0
  6
CONTINUOUS
 62
    7
370
   -1
100
AcDbSpline
210
0
220
0
230
0
 70
    8
 71
    3
 72
    9
 73
    5
 74
    0
 42
1e-07
 43
1e-07
 40
0
 40
0
 40
0
 40
0
 40
0.5
 40
1
 40
1
 40
1
 40
1
 10
1719.1918134692
 20
-239.8684985195
 30
0
 10
1719.2809198074
 20
-239.5398808281
 30
0
 10
1719.4720727924
 20
-238.8832999806
 30
0
 10
1719.6629897791
 20
-238.2266667271
 30
0
 10
1719.7642830526
 20
-237.8986363024
 30
0
  0
SPLINE
  5
2CF
100
AcDbEntity
  8
0
  6
CONTINUOUS
 62
    7
370
   -1
100
AcDbSpline
210
0
220
0
230
0
 70
    8
 71
    3
 72
   15
 73
   11
 74
    0
 42
1e-07
 43
1e-07
 40
0
 40
0
 40
0
 40
0
 40
0.125
 40
0.25
 40
0.375
 40
0.5
 40
0.625
 40
0.75
 40
0.875
 40
1
 40
1
 40
1
 40
1
 10
1699.9870816656
 20
-530.055830454
 30
0
 10
1699.9839207337
 20
-531.1195175886
 30
0
 10
1700.1568109056
 20
-533.2525558594
 30
0
 10
1700.9237342378
 20
-536.3662284264
 30
0
 10
1702.1692613857
 20
-539.3228674326
 30
0
 10
1703.8675156795
 20
-542.0447564246
 30
0
 10
1705.9879834531
 20
-544.4513646297
 30
0
 10
1708.4609940237
 20
-546.4932081595
 30
0
 10
1711.2220931981
 20
-548.1239971753
 30
0
 10
1713.2147705654
 20
-548.9057935349
 30
0
 10
1714.2346114511
 20
-549.2111805550001
 30
0
  0
SPLINE
  5
2D0
100
AcDbEntity
  8
0
  6
CONTINUOUS
 62
    7
370
   -1
100
AcDbSpline
210
0
220
0
230
0
 70
    8
 71
    3
 72
   13
 73
    9
 74
    0
 42
1e-07
 43
1e-07
 40
0
 40
0
 40
0
 40
0
 40
0.1666666666666667
 40
0.3333333333333333
 40
0.5
 40
0.6666666666666666
 40
0.8333333333333333
 40
1
 40
1
 40
1
 40
1
 10
1716.791350665
 20
-547.3143356853
 30
0
 10
1715.7445058357
 20
-547.030169636
 30
0
 10
1713.6951972574
 20
-546.2813424402
 30
0
 10
1710.8486267557
 20
-544.6750778092
 30
0
 10
1708.2929152716
 20
-542.6353201314
 30
0
 10
1705.3690545499
 20
-539.4115299186
 30
0
 10
1702.7888837374
 20
-534.5405375806999
 30
0
 10
1702.055206696
 20
-530.1850762619
 30
0
 10
1702.0593962346
 20
-528.0219124385
 30
0
  0
SPLINE
  5
2D1
100
AcDbEntity
  8
0
  6
CONTINUOUS
 62
    7
370
   -1
100
AcDbSpline
210
0
220
0
230
0
 70
    8
 71
    3
 72
   11
 73
    7
 74
    0
 42
1e-07
 43
1e-07
 40
0
 40
0
 40
0
 40
0
 40
0.25
 40
0.5
 40
0.75
 40
1
 40
1
 40
1
 40
1
 10
1699.9870816665
 20
-530.055830151
 30
0
 10
1699.9870757973
 20
-529.9100036377
 30
0
 10
1700.0587887795
 20
-529.5943000198
 30
0
 10
1700.3553394124
 20
-529.1590012499
 30
0
 10
1700.8231529131
 20
-528.7380096183
 30
0
 10
1701.2083734094
 20
-528.4873928808
 30
0
 10
1701.4262627716
 20
-528.359690223
 30
0
  0
SPLINE
  5
2D2
100
AcDbEntity
  8
0
  6
CONTINUOUS
 62
    7
370
   -1
100
AcDbSpline
210
0
220
0
230
0
 70
    8
 71
    3
 72
    9
 73
    5
 74
    0
 42
1e-07
 43
1e-07
 40
0
 40
0
 40
0
 40
0
 40
0.5
 40
1
 40
1
 40
1
 40
1
 10
1701.4262627716
 20
-528.359690223
 30
0
 10
1701.4751273549
 20
-528.3310512059001
 30
0
 10
1701.6828568504
 20
-528.2123617945
 30
0
 10
1701.8954202371
 20
-528.1022394097999
 30
0
 10
1702.0593962347
 20
-528.0219124384
 30
0
  0
SPLINE
  5
2D3
100
AcDbEntity
  8
0
  6
CONTINUOUS
 62
    7
370
   -1
100
AcDbSpline
210
0
220
0
230
0
 70
    8
 71
    3
 72
   11
 73
    7
 74
    0
 42
1e-07
 43
1e-07
 40
0
 40
0
 40
0
 40
0
 40
0.25
 40
0.5
 40
0.75
 40
1
 40
1
 40
1
 40
1
 10
1702.0593962163
 20
-281.4940409039
 30
0
 10
1701.7298108278
 20
-280.8307708136
 30
0
 10
1701.1448430806
 20
-279.5362271988
 30
0
 10
1700.4829810747
 20
-277.5971061282
 30
0
 10
1700.0812274851
 20
-275.741714979
 30
0
 10
1699.9870816648
 20
-274.5245735502
 30
0
 10
1699.9870816661
 20
-273.9354374335
 30
0
  0
SPLINE
  5
2D4
100
AcDbEntity
  8
0
  6
CONTINUOUS
 62
    7
370
   -1
100
AcDbSpline
210
0
220
0
230
0
 70
    8
 71
    3
 72
   13
 73
    9
 74
    0
 42
1e-07
 43
1e-07
 40
0
 40
0
 40
0
 40
0
 40
0.1666666666666667
 40
0.3333333333333333
 40
0.5
 40
0.6666666666666666
 40
0.8333333333333333
 40
1
 40
1
 40
1
 40
1
 10
1702.0593962159
 20
-281.4940409032
 30
0
 10
1702.0723278661
 20
-278.4534635915
 30
0
 10
1702.6253811793
 20
-273.8686393312
 30
0
 10
1704.380406307
 20
-268.0271845959
 30
0
 10
1706.1929662014
 20
-263.8138938806
 30
0
 10
1708.4752294005
 20
-259.8322159515
 30
0
 10
1712.1065368677
 20
-254.9139390344
 30
0
 10
1715.4490533585
 20
-251.7101706609
 30
0
 10
1717.8767621928
 20
-249.8619865614
 30
0
  0
LINE
  5
2D5
100
AcDbEntity
  8
0
  6
ByLayer
 62
  256
370
   -1
100
AcDbLine
 10
0
 20
899.9973800506762
 11
-3.061515884555943e-15
 21
849.9973800506762
  0
LINE
  5
2D6
100
AcDbEntity
  8
0
  6
ByLayer
 62
  256
370
   -1
100
AcDbLine
 10
-1093.596415455599
 20
899.9973800506762
 11
-1093.596415455599
 21
799.9973800506762
  0
LINE
  5
2D7
100
AcDbEntity
  8
0
  6
CONTINUOUS
 62
    7
370
   -1
100
AcDbLine
 10
-474.8943300090999
 20
900.0116879653
 11
518.0138871639
 21
900.0116879653
  0
LINE
  5
2D8
100
AcDbEntity
  8
frame
  6
ByLayer
 62
  256
370
   -1
100
AcDbLine
 10
1063.95833320966
 20
349.9885506108818
 11
1064.031784064072
 21
850.0131569100818
  0
LINE
  5
2D9
100
AcDbEntity
  8
frame
  6
ByLayer
 62
  256
370
   -1
100
AcDbLine
 10
1038.958333479385
 20
349.9922229728363
 11
1039.031784333797
 21
850.0168292720363
  0
LINE
  5
2DA
100
AcDbEntity
  8
frame
  6
ByLayer
 62
  256
370
   -1
100
AcDbLine
 10
3.090521190599997
 20
850.0116879653
 11
1039.031784333797
 21
850.0168292720363
  0
LINE
  5
2DB
100
AcDbEntity
  8
frame
  6
ByLayer
 62
  256
370
   -1
100
AcDbLine
 10
1039.031784333797
 20
850.0168292720363
 11
1064.031784064072
 21
850.0131569100818
  0
LINE
  5
2DC
100
AcDbEntity
  8
frame
  6
ByLayer
 62
  256
370
   -1
100
AcDbLine
 10
3.090521212600003
 20
349.9870816661
 11
1038.958333479385
 21
349.9922229728363
  0
LINE
  5
2DD
100
AcDbEntity
  8
frame
  6
ByLayer
 62
  256
370
   -1
100
AcDbLine
 10
1063.95833320966
 20
349.9885506108818
 11
1038.958333479385
 21
349.9922229728363
  0
LINE
  5
2DE
100
AcDbEntity
  8
frame
  6
ByLayer
 62
  256
370
   -1
100
AcDbLine
 10
3.090397130485583
 20
374.9870816657921
 11
1038.95820939727
 21
374.9922229725284
  0
LINE
  5
2DF
100
AcDbEntity
  8
frame
  6
ByLayer
 62
  256
370
   -1
100
AcDbLine
 10
3.090645263916679
 20
825.0116879656078
 11
1039.031908407114
 21
825.0168292723441
  0
LINE
  5
2E0
100
AcDbEntity
  8
frame
  6
ByLayer
 62
  256
370
   -1
100
AcDbLine
 10
-644.9616348202001
 20
424.9870816611879
 11
-619.9616348202001
 21
424.987081661418
  0
LINE
  5
2E1
100
AcDbEntity
  8
frame
  6
ByLayer
 62
  256
370
   -1
100
AcDbLine
 10
5.038365179799939
 20
374.9870913341118
 11
30.03836517979994
 21
374.9872154162262
  0
LINE
  5
2E2
100
AcDbEntity
  8
frame
  6
ByLayer
 62
  256
370
   -1
100
AcDbLine
 10
685.0383651797998
 20
374.9904663676241
 11
710.0383651797999
 21
374.9905904497385
  0
LINE
  5
2E3
100
AcDbEntity
  8
frame
  6
ByLayer
 62
  256
370
   -1
100
AcDbLine
 10
-1144.9616348202
 20
800.0116879763946
 11
-1144.9616348202
 21
399.9870816567815
  0
LINE
  5
2E4
100
AcDbEntity
  8
frame
  6
ByLayer
 62
  256
370
   -1
100
AcDbLine
 10
-1119.9616348202
 20
800.0116879763946
 11
-1119.9616348202
 21
399.9870816567815
  0
LINE
  5
2E5
100
AcDbEntity
  8
frame
  6
ByLayer
 62
  256
370
   -1
100
AcDbLine
 10
-1144.9616348202
 20
800.0116879763946
 11
-1119.9616348202
 21
800.0116879763946
  0
LINE
  5
2E6
100
AcDbEntity
  8
frame
  6
ByLayer
 62
  256
370
   -1
100
AcDbLine
 10
-1144.9616348202
 20
399.9870816567815
 11
-1119.9616348202
 21
399.9870816567815
  0
SPLINE
  5
2E7
100
AcDbEntity
  8
frame
  6
ByLayer
 62
  256
370
   -1
100
AcDbSpline
210
0
220
0
230
0
 70
    8
 71
    2
 72
    8
 73
    5
 74
    0
 42
1e-07
 43
1e-07
 40
0
 40
0
 40
0
 40
0.3333333333333333
 40
0.6666666666666666
 40
1
 40
1
 40
1
 10
1038.958333479385
 20
-533.1741585618106
 30
0
 10
765.1473690203079
 20
-544.2988992256326
 30
0
 10
228.8832434534258
 20
-557.0671842218427
 30
0
 10
-534.150037715817
 20
-553.0299006100975
 30
0
 10
-1134.331832457216
 20
-525.530571644126
 30
0
  0
SPLINE
  5
2E8
100
AcDbEntity
  8
frame
  6
ByLayer
 62
  256
370
   -1
100
AcDbSpline
210
0
220
0
230
0
 70
    8
 71
    2
 72
    8
 73
    5
 74
    0
 42
1e-07
 43
1e-07
 40
0
 40
0
 40
0
 40
0.3333333333333333
 40
0.6666666666666666
 40
1
 40
1
 40
1
 10
1037.943438949641
 20
-508.1947672743213
 30
0
 10
764.37089380748
 20
-519.3095439411795
 30
0
 10
228.6801392157163
 20
-532.0657782638465
 30
0
 10
-533.5185499631131
 20
-528.0334266662985
 30
0
 10
-1133.187574599224
 20
-500.5567718940995
 30
0
  0
LINE
  5
2E9
100
AcDbEntity
  8
frame
  6
ByLayer
 62
  256
370
   -1
100
AcDbLine
 10
1037.943438949641
 20
-508.1947672743213
 11
1038.958333479385
 21
-508.1875538411621
  0
LINE
  5
2EA
100
AcDbEntity
  8
frame
  6
ByLayer
 62
  256
370
   -1
100
AcDbLine
 10
-1119.9616348202
 20
-341.4112797775778
 11
-1119.9616348202
 21
-526.1867644660248
  0
LINE
  5
2EB
100
AcDbEntity
  8
frame
  6
ByLayer
 62
  256
370
   -1
100
AcDbLine
 10
-1144.9616348202
 20
-350.5294295452725
 11
-1144.9616348202
 21
-525.126990789619
  0
LINE
  5
2EC
100
AcDbEntity
  8
frame
  6
ByLayer
 62
  256
370
   -1
100
AcDbLine
 10
1063.95833320966
 20
-532.3887997497316
 11
1038.958333479385
 21
-533.1741585618106
  0
LINE
  5
2ED
100
AcDbEntity
  8
frame
  6
ByLayer
 62
  256
370
   -1
100
AcDbLine
 10
-1134.331832457216
 20
-525.530571644126
 11
-1144.9616348202
 21
-525.126990789619
  0
LINE
  5
2EE
100
AcDbEntity
  8
frame
  6
ByLayer
 62
  256
370
   -1
100
AcDbLine
 10
430.0383651797999
 20
800.0116879763942
 11
430.0383651797999
 21
399.9870816567811
  0
LINE
  5
2EF
100
AcDbEntity
  8
frame
  6
ByLayer
 62
  256
370
   -1
100
AcDbLine
 10
405.0383651797999
 20
800.0116879763942
 11
405.0383651797999
 21
399.9870816567811
  0
LINE
  5
2F0
100
AcDbEntity
  8
frame
  6
ByLayer
 62
  256
370
   -1
100
AcDbLine
 10
405.0383651797999
 20
374.9890766479426
 11
405.0383651797999
 21
825.0136828050776
  0
LINE
  5
2F1
100
AcDbEntity
  8
frame
  6
ByLayer
 62
  256
370
   -1
100
AcDbLine
 10
430.0383651797999
 20
825.0138068783942
 11
430.0383651797999
 21
374.989200730057
  0
CIRCLE
  5
2F2
100
AcDbEntity
  8
frame
  6
ByLayer
 62
  256
370
   -1
100
AcDbCircle
 10
-732.4616348202002
 20
-529.4501992313051
 40
12.5
  0
CIRCLE
  5
2F3
100
AcDbEntity
  8
frame
  6
ByLayer
 62
  256
370
   -1
100
AcDbCircle
 10
417.5383651797999
 20
-539.8386523355013
 40
12.5
  0
LINE
  5
2F4
100
AcDbEntity
  8
frame_rr9
  6
ByLayer
 62
  256
370
   -1
100
AcDbLine
 10
1063.869105516344
 20
851.9055281360569
 11
1063.869105516344
 21
600.7162652310577
  0
LINE
  5
2F5
100
AcDbEntity
  8
frame_rr9
  6
ByLayer
 62
  256
370
   -1
100
AcDbLine
 10
-244.3075039637004
 20
851.9055281360569
 11
1063.869105516344
 21
851.9055281360569
  0
LINE
  5
2F6
100
AcDbEntity
  8
frame_rr9
  6
ByLayer
 62
  256
370
   -1
100
AcDbLine
 10
1038.869105516344
 20
851.9055281360569
 11
1038.869105516344
 21
600.7162652310577
  0
LINE
  5
2F7
100
AcDbEntity
  8
frame_rr9
  6
ByLayer
 62
  256
370
   -1
100
AcDbLine
 10
-237.6087741529223
 20
826.9055281360569
 11
1063.869105516344
 21
826.9055281360569
  0
LINE
  5
2F8
100
AcDbEntity
  8
frame_rr9
  6
ByLayer
 62
  256
370
   -1
100
AcDbLine
 10
-496.5085634237005
 20
801.9055281360569
 11
-996.5085634237005
 21
801.9055281360569
  0
LINE
  5
2F9
100
AcDbEntity
  8
frame_rr9
  6
ByLayer
 62
  256
370
   -1
100
AcDbLine
 10
-1226.6858731687
 20
600.7162652310577
 11
-1226.6858731687
 21
801.9055281360569
  0
LINE
  5
2FA
100
AcDbEntity
  8
frame_rr9
  6
ByLayer
 62
  256
370
   -1
100
AcDbLine
 10
-1201.6858731687
 20
600.7162652310577
 11
-1201.6858731687
 21
801.9055281360569
  0
LINE
  5
2FB
100
AcDbEntity
  8
frame_rr9
  6
ByLayer
 62
  256
370
   -1
100
AcDbLine
 10
-996.5085634237005
 20
801.9055281360569
 11
-1201.6858731687
 21
801.9055281360569
  0
LINE
  5
2FC
100
AcDbEntity
  8
frame_rr9
  6
ByLayer
 62
  256
370
   -1
100
AcDbLine
 10
-737.608774152922
 20
776.9055281360569
 11
-1201.6858731687
 21
776.9055281360569
  0
LINE
  5
2FD
100
AcDbEntity
  8
frame_rr9
  6
ByLayer
 62
  256
370
   -1
100
AcDbLine
 10
-1201.6858731687
 20
801.9055281360569
 11
-1226.6858731687
 21
801.9055281360569
  0
LINE
  5
2FE
100
AcDbEntity
  8
frame_rr9
  6
ByLayer
 62
  256
370
   -1
100
AcDbLine
 10
1063.869105516345
 20
349.5270023260564
 11
1063.869105516344
 21
600.7162652310577
  0
LINE
  5
2FF
100
AcDbEntity
  8
frame_rr9
  6
ByLayer
 62
  256
370
   -1
100
AcDbLine
 10
-244.3075039637004
 20
349.5270023260586
 11
1063.869105516345
 21
349.5270023260564
  0
LINE
  5
300
100
AcDbEntity
  8
frame_rr9
  6
ByLayer
 62
  256
370
   -1
100
AcDbLine
 10
1038.869105516345
 20
349.5270023260596
 11
1038.869105516345
 21
600.7162652310577
  0
LINE
  5
301
100
AcDbEntity
  8
frame_rr9
  6
ByLayer
 62
  256
370
   -1
100
AcDbLine
 10
-237.6087741529223
 20
374.5270023260586
 11
1063.869105516345
 21
374.5270023260611
  0
LINE
  5
302
100
AcDbEntity
  8
frame_rr9
  6
ByLayer
 62
  256
370
   -1
100
AcDbLine
 10
-496.5085634237005
 20
399.5270023260586
 11
-996.5085634237005
 21
399.5270023260584
  0
LINE
  5
303
100
AcDbEntity
  8
frame_rr9
  6
ByLayer
 62
  256
370
   -1
100
AcDbLine
 10
-1226.6858731687
 20
600.7162652310577
 11
-1226.6858731687
 21
399.5270023260584
  0
LINE
  5
304
100
AcDbEntity
  8
frame_rr9
  6
ByLayer
 62
  256
370
   -1
100
AcDbLine
 10
-1201.6858731687
 20
600.7162652310577
 11
-1201.6858731687
 21
399.5270023260584
  0
LINE
  5
305
100
AcDbEntity
  8
frame_rr9
  6
ByLayer
 62
  256
370
   -1
100
AcDbLine
 10
-996.5085634237005
 20
399.5270023260584
 11
-1201.6858731687
 21
399.5270023260584
  0
LINE
  5
306
100
AcDbEntity
  8
frame_rr9
  6
ByLayer
 62
  256
370
   -1
100
AcDbLine
 10
-737.608774152922
 20
424.5270023260583
 11
-1201.6858731687
 21
424.5270023260584
  0
LINE
  5
307
100
AcDbEntity
  8
frame_rr9
  6
ByLayer
 62
  256
370
   -1
100
AcDbLine
 10
-1201.6858731687
 20
399.5270023260584
 11
-1226.6858731687
 21
399.5270023260584
  0
CIRCLE
  5
308
100
AcDbEntity
  8
frame_rr9
  6
ByLayer
 62
  256
370
   -1
100
AcDbCircle
 10
-194.6831185637002
 20
362.0270023260586
 40
12.5
  0
CIRCLE
  5
309
100
AcDbEntity
  8
frame_rr9
  6
ByLayer
 62
  256
370
   -1
100
AcDbCircle
 10
-194.6831185637002
 20
839.4055281360569
 40
12.5
  0
CIRCLE
  5
30A
100
AcDbEntity
  8
frame_rr9
  6
ByLayer
 62
  256
370
   -1
100
AcDbCircle
 10
500.8141266562995
 20
839.4055281360569
 40
12.5
  0
CIRCLE
  5
30B
100
AcDbEntity
  8
frame_rr9
  6
ByLayer
 62
  256
370
   -1
100
AcDbCircle
 10
500.8141266562995
 20
362.0270023260587
 40
12.5
  0
LINE
  5
30C
100
AcDbEntity
  8
frame_rr9
  6
ByLayer
 62
  256
370
   -1
100
AcDbLine
 10
668.7683249962997
 20
324.5270023260571
 11
693.7683249962997
 21
324.527002326057
  0
LINE
  5
30D
100
AcDbEntity
  8
frame_rr9
  6
ByLayer
 62
  256
370
   -1
100
AcDbLine
 10
668.7683249962997
 20
324.5270023260571
 11
668.7683249962998
 21
876.9055281360569
  0
LINE
  5
30E
100
AcDbEntity
  8
frame_rr9
  6
ByLayer
 62
  256
370
   -1
100
AcDbLine
 10
693.7683249962997
 20
324.527002326057
 11
693.7683249962998
 21
876.9055281360569
  0
LINE
  5
30F
100
AcDbEntity
  8
frame_rr9
  6
ByLayer
 62
  256
370
   -1
100
AcDbLine
 10
668.7683249962998
 20
876.9055281360569
 11
693.7683249962998
 21
876.9055281360569
  0
LINE
  5
310
100
AcDbEntity
  8
frame_rr9
  6
ByLayer
 62
  256
370
   -1
100
AcDbLine
 10
777.2749278340536
 20
659.4945591042562
 11
770.9045189027082
 21
660.9750049439532
  0
LINE
  5
311
100
AcDbEntity
  8
frame_rr9
  6
ByLayer
 62
  256
370
   -1
100
AcDbLine
 10
752.2749278340536
 20
663.601005357513
 11
772.9590941766147
 21
660.5872955360596
  0
LINE
  5
312
100
AcDbEntity
  8
frame_rr9
  6
ByLayer
 62
  256
370
   -1
100
AcDbLine
 10
752.2749278340536
 20
537.8314420146015
 11
752.2749278340536
 21
663.601005357513
  0
LINE
  5
313
100
AcDbEntity
  8
frame_rr9
  6
ByLayer
 62
  256
370
   -1
100
AcDbLine
 10
777.2749278340536
 20
541.9378882678584
 11
777.2749278340536
 21
659.4945591042562
  0
LINE
  5
314
100
AcDbEntity
  8
frame_rr9
  6
ByLayer
 62
  256
370
   -1
100
AcDbLine
 10
777.2749278340536
 20
541.9378882678584
 11
770.9045189027083
 21
540.4574424281614
  0
LINE
  5
315
100
AcDbEntity
  8
frame_rr9
  6
ByLayer
 62
  256
370
   -1
100
AcDbLine
 10
752.2749278340536
 20
537.8314420146016
 11
772.9590941766147
 21
540.8451518360549
  0
LINE
  5
316
100
AcDbEntity
  8
frame_rr9
  6
ByLayer
 62
  256
370
   -1
100
AcDbLine
 10
777.2749278340536
 20
613.2162652310583
 11
1038.869105516344
 21
613.2162652310583
  0
LINE
  5
317
100
AcDbEntity
  8
frame_rr9
  6
ByLayer
 62
  256
370
   -1
100
AcDbLine
 10
777.2749278340536
 20
588.2162652310584
 11
1038.869105516345
 21
588.2162652310584
  0
LINE
  5
318
100
AcDbEntity
  8
frame_rr9
  6
ByLayer
 62
  256
370
   -1
100
AcDbLine
 10
-237.6087741529223
 20
374.5270023260586
 11
-358.3194522715769
 21
424.5270023260585
  0
LINE
  5
319
100
AcDbEntity
  8
frame_rr9
  6
ByLayer
 62
  256
370
   -1
100
AcDbLine
 10
-244.3075039637004
 20
349.5270023260586
 11
-365.0181820823552
 21
399.5270023260586
  0
LINE
  5
31A
100
AcDbEntity
  8
frame_rr9
  6
ByLayer
 62
  256
370
   -1
100
AcDbLine
 10
-496.5085634237005
 20
399.5270023260586
 11
-365.0181820823552
 21
399.5270023260586
  0
LINE
  5
31B
100
AcDbEntity
  8
frame_rr9
  6
ByLayer
 62
  256
370
   -1
100
AcDbLine
 10
-358.3194522715769
 20
424.5270023260585
 11
-737.608774152922
 21
424.5270023260583
  0
LINE
  5
31C
100
AcDbEntity
  8
frame_rr9
  6
ByLayer
 62
  256
370
   -1
100
AcDbLine
 10
-237.6087741529223
 20
826.9055281360569
 11
-358.3194522715769
 21
776.9055281360569
  0
LINE
  5
31D
100
AcDbEntity
  8
frame_rr9
  6
ByLayer
 62
  256
370
   -1
100
AcDbLine
 10
-358.3194522715769
 20
776.9055281360569
 11
-737.608774152922
 21
776.9055281360569
  0
LINE
  5
31E
100
AcDbEntity
  8
frame_rr9
  6
ByLayer
 62
  256
370
   -1
100
AcDbLine
 10
-496.5085634237005
 20
801.9055281360569
 11
-365.0181820823552
 21
801.9055281360569
  0
LINE
  5
31F
100
AcDbEntity
  8
frame_rr9
  6
ByLayer
 62
  256
370
   -1
100
AcDbLine
 10
-244.3075039637004
 20
851.9055281360569
 11
-365.0181820823552
 21
801.9055281360569
  0
CIRCLE
  5
320
100
AcDbEntity
  8
frame_rr9
  6
ByLayer
 62
  256
370
   -1
100
AcDbCircle
 10
-599.1858733541551
 20
789.4055281360569
 40
12.5
  0
CIRCLE
  5
321
100
AcDbEntity
  8
frame_rr9
  6
ByLayer
 62
  256
370
   -1
100
AcDbCircle
 10
-599.1858733541551
 20
412.0270023260584
 40
12.5
  0
LINE
  5
322
100
AcDbEntity
  8
frame_rr9
  6
ByLayer
 62
  256
370
   -1
100
AcDbLine
 10
-735.7230464140409
 20
600.7162652310575
 11
-735.7230464140409
 21
776.9055281360569
  0
LINE
  5
323
100
AcDbEntity
  8
frame_rr9
  6
ByLayer
 62
  256
370
   -1
100
AcDbLine
 10
-710.7230464140409
 20
600.7162652310575
 11
-710.7230464140409
 21
776.9055281360569
  0
LINE
  5
324
100
AcDbEntity
  8
frame_rr9
  6
ByLayer
 62
  256
370
   -1
100
AcDbLine
 10
-710.7230464140409
 20
600.7162652310575
 11
-710.7230464140409
 21
424.5270023260583
  0
LINE
  5
325
100
AcDbEntity
  8
frame_rr9
  6
ByLayer
 62
  256
370
   -1
100
AcDbLine
 10
-735.7230464140409
 20
600.7162652310575
 11
-735.7230464140409
 21
424.5270023260583
  0
LINE
  5
326
100
AcDbEntity
  8
frame_rr9
  6
ByLayer
 62
  256
370
   -1
100
AcDbLine
 10
-383.6726275539734
 20
424.5270023260584
 11
-383.6726275539734
 21
776.9055281360569
  0
LINE
  5
327
100
AcDbEntity
  8
frame_rr9
  6
ByLayer
 62
  256
370
   -1
100
AcDbLine
 10
-408.6726275539734
 20
424.5270023260584
 11
-408.6726275539734
 21
776.9055281360569
  0
LINE
  5
328
100
AcDbEntity
  8
frame_rr9
  6
ByLayer
 62
  256
370
   -1
100
AcDbLine
 10
-1213.960082991265
 20
-405.6316659196609
 11
-1200.251438486348
 21
-397.3567208114951
  0
LINE
  5
329
100
AcDbEntity
  8
frame_rr9
  6
ByLayer
 62
  256
370
   -1
100
AcDbLine
 10
-1200.633007050814
 20
-397.5824552673914
 11
-1186.624311913343
 21
-389.4617830157155
  0
LINE
  5
32A
100
AcDbEntity
  8
frame_rr9
  6
ByLayer
 62
  256
370
   -1
100
AcDbLine
 10
-1187.024315716425
 20
-389.6887704700544
 11
-1172.782779643466
 21
-381.7795132455137
  0
LINE
  5
32B
100
AcDbEntity
  8
frame_rr9
  6
ByLayer
 62
  256
370
   -1
100
AcDbLine
 10
-1173.207471461839
 20
-382.0100305243094
 11
-1158.80030415046
 21
-374.3693304975495
  0
LINE
  5
32C
100
AcDbEntity
  8
frame_rr9
  6
ByLayer
 62
  256
370
   -1
100
AcDbLine
 10
-1159.256654374244
 20
-374.6053754057987
 11
-1144.751065521511
 21
-367.290374747465
  0
LINE
  5
32D
100
AcDbEntity
  8
frame_rr9
  6
ByLayer
 62
  256
370
   -1
100
AcDbLine
 10
-1145.247090841321
 20
-367.5336775154394
 11
-1130.7102901443
 21
-360.6015183961772
  0
LINE
  5
32E
100
AcDbEntity
  8
frame_rr9
  6
ByLayer
 62
  256
370
   -1
100
AcDbLine
 10
-1226.932509486938
 20
-413.7766429067763
 11
-1213.59112531164
 21
-405.4045671127657
  0
LINE
  5
32F
100
AcDbEntity
  8
frame_rr9
  6
ByLayer
 62
  256
370
   -1
100
AcDbLine
 10
-1131.255051470064
 20
-360.8533180618688
 11
-1116.753758727213
 21
-354.3606205573515
  0
LINE
  5
330
100
AcDbEntity
  8
frame_rr9
  6
ByLayer
 62
  256
370
   -1
100
AcDbLine
 10
-1117.332537926875
 20
-354.6110439188467
 11
-1102.904079020146
 21
-348.5831024064369
  0
LINE
  5
331
100
AcDbEntity
  8
frame_rr9
  6
ByLayer
 62
  256
370
   -1
100
AcDbLine
 10
-1103.479507720122
 20
-348.815161491422
 11
-1089.11564796088
 21
-343.2287155161001
  0
LINE
  5
332
100
AcDbEntity
  8
frame_rr9
  6
ByLayer
 62
  256
370
   -1
100
AcDbLine
 10
-1075.917475174689
 20
-338.459215970651
 11
-1061.646352077913
 21
-333.6734494251211
  0
LINE
  5
333
100
AcDbEntity
  8
frame_rr9
  6
ByLayer
 62
  256
370
   -1
100
AcDbLine
 10
-1089.680037380242
 20
-343.4404225799474
 11
-1075.368622890985
 21
-338.2680349269188
  0
LINE
  5
334
100
AcDbEntity
  8
frame_rr9
  6
ByLayer
 62
  256
370
   -1
100
AcDbLine
 10
-1062.175290299658
 20
-333.8443092580726
 11
-1047.932304717863
 21
-329.4177266052468
  0
LINE
  5
335
100
AcDbEntity
  8
frame_rr9
  6
ByLayer
 62
  256
370
   -1
100
AcDbLine
 10
-1048.437168651377
 20
-329.5688170666092
 11
-1034.21016670706
 21
-325.4739810916932
  0
LINE
  5
336
100
AcDbEntity
  8
frame_rr9
  6
ByLayer
 62
  256
370
   -1
100
AcDbLine
 10
-1034.687096199221
 20
-325.6061541213865
 11
-1020.463924014879
 21
-321.8156276095858
  0
LINE
  5
337
100
AcDbEntity
  8
frame_rr9
  6
ByLayer
 62
  256
370
   -1
100
AcDbLine
 10
-1020.909426570564
 20
-321.9299770024986
 11
-1006.677930268695
 21
-318.4163227390188
  0
LINE
  5
338
100
AcDbEntity
  8
frame_rr9
  6
ByLayer
 62
  256
370
   -1
100
AcDbLine
 10
-1007.088931018913
 20
-318.5141189705379
 11
-992.8369567220163
 21
-315.2498997405842
  0
LINE
  5
339
100
AcDbEntity
  8
frame_rr9
  6
ByLayer
 62
  256
370
   -1
100
AcDbLine
 10
-993.2108304970693
 20
-315.332522314709
 11
-978.9262243276403
 21
-312.2903009034869
  0
LINE
  5
33A
100
AcDbEntity
  8
frame_rr9
  6
ByLayer
 62
  256
370
   -1
100
AcDbLine
 10
-979.2608109092653
 20
-312.3591723132383
 11
-964.9314189898032
 21
-309.5115115059536
  0
LINE
  5
33B
100
AcDbEntity
  8
frame_rr9
  6
ByLayer
 62
  256
370
   -1
100
AcDbLine
 10
-965.2250236428551
 20
-309.5680362250854
 11
-950.8386920958585
 21
-306.8874988069434
  0
LINE
  5
33C
100
AcDbEntity
  8
frame_rr9
  6
ByLayer
 62
  256
370
   -1
100
AcDbLine
 10
-936.8430013950908
 20
-304.4278736117031
 11
-922.3063289605159
 21
-301.9992713274629
  0
LINE
  5
33D
100
AcDbEntity
  8
frame_rr9
  6
ByLayer
 62
  256
370
   -1
100
AcDbLine
 10
-951.0900741227258
 20
-306.9330098881933
 11
-936.6346490706908
 21
-304.3921586443995
  0
LINE
  5
33E
100
AcDbEntity
  8
frame_rr9
  6
ByLayer
 62
  256
370
   -1
100
AcDbLine
 10
-922.4712516840161
 20
-302.0262582204826
 11
-907.8411779893988
 21
-299.6824676810018
  0
LINE
  5
33F
100
AcDbEntity
  8
frame_rr9
  6
ByLayer
 62
  256
370
   -1
100
AcDbLine
 10
-907.9641754309698
 20
-299.7018582731514
 11
-893.2338828924528
 21
-297.4172025804861
  0
LINE
  5
340
100
AcDbEntity
  8
frame_rr9
  6
ByLayer
 62
  256
370
   -1
100
AcDbLine
 10
-893.3334117659253
 20
-297.4324342388059
 11
-878.55811721328
 21
-295.2017001784056
  0
LINE
  5
341
100
AcDbEntity
  8
frame_rr9
  6
ByLayer
 62
  256
370
   -1
100
AcDbLine
 10
-878.6473576327091
 20
-295.2150087912323
 11
-863.9223000980444
 21
-293.0461855249284
  0
LINE
  5
342
100
AcDbEntity
  8
frame_rr9
  6
ByLayer
 62
  256
370
   -1
100
AcDbLine
 10
-864.0030487104229
 20
-293.0579442121692
 11
-849.4241342625558
 21
-290.9592409413999
  0
LINE
  5
343
100
AcDbEntity
  8
frame_rr9
  6
ByLayer
 62
  256
370
   -1
100
AcDbLine
 10
-849.4977110970374
 20
-290.9697210662
 11
-835.1608458047829
 21
-288.9493469924031
  0
LINE
  5
344
100
AcDbEntity
  8
frame_rr9
  6
ByLayer
 62
  256
370
   -1
100
AcDbLine
 10
-835.2283578581876
 20
-288.9587670488281
 11
-821.2294477903622
 21
-287.0249313734416
  0
LINE
  5
345
100
AcDbEntity
  8
frame_rr9
  6
ByLayer
 62
  256
370
   -1
100
AcDbLine
 10
-821.2918461663282
 20
-287.0334711190071
 11
-807.7267973917471
 21
-285.1943830434691
  0
LINE
  5
346
100
AcDbEntity
  8
frame_rr9
  6
ByLayer
 62
  256
370
   -1
100
AcDbLine
 10
-794.8042826009157
 20
-283.4732789481538
 11
-782.3946746192717
 21
-281.8483136766265
  0
LINE
  5
347
100
AcDbEntity
  8
frame_rr9
  6
ByLayer
 62
  256
370
   -1
100
AcDbLine
 10
-807.7849254687592
 20
-285.2021943585433
 11
-794.7496440562384
 21
-283.4660630842916
  0
LINE
  5
348
100
AcDbEntity
  8
frame_rr9
  6
ByLayer
 62
  256
370
   -1
100
AcDbLine
 10
-782.4465906908952
 20
-281.8550564984288
 11
-770.7585622089434
 21
-280.3494664310638
  0
LINE
  5
349
100
AcDbEntity
  8
frame_rr9
  6
ByLayer
 62
  256
370
   -1
100
AcDbLine
 10
-770.808572114772
 20
-280.3558571861856
 11
-759.9380292013282
 21
-278.9778515244209
  0
LINE
  5
34A
100
AcDbEntity
  8
frame_rr9
  6
ByLayer
 62
  256
370
   -1
100
AcDbLine
 10
-759.9870943539761
 20
-278.9840219736378
 11
-750.0299430778566
 21
-277.7418099189115
  0
LINE
  5
34B
100
AcDbEntity
  8
frame_rr9
  6
ByLayer
 62
  256
370
   -1
100
AcDbLine
 10
-750.079338876322
 20
-277.7479223994599
 11
-741.131485306342
 21
-276.6497131532097
  0
LINE
  5
34C
100
AcDbEntity
  8
frame_rr9
  6
ByLayer
 62
  256
370
   -1
100
AcDbLine
 10
-741.1831397316757
 20
-276.6559983669717
 11
-733.3404899366517
 21
-275.7100011306358
  0
LINE
  5
34D
100
AcDbEntity
  8
frame_rr9
  6
ByLayer
 62
  256
370
   -1
100
AcDbLine
 10
-733.3977581668757
 20
-275.7168419361968
 11
-726.7562182156232
 21
-274.9312659112131
  0
LINE
  5
34E
100
AcDbEntity
  8
frame_rr9
  6
ByLayer
 62
  256
370
   -1
100
AcDbLine
 10
-257.9840949448763
 20
-241.6215804516305
 11
-245.4473059478498
 21
-241.0801283693173
  0
LINE
  5
34F
100
AcDbEntity
  8
frame_rr9
  6
ByLayer
 62
  256
370
   -1
100
AcDbLine
 10
-282.8153051287524
 20
-242.7313027360244
 11
-270.3969654193201
 21
-242.1699570194827
  0
LINE
  5
350
100
AcDbEntity
  8
frame_rr9
  6
ByLayer
 62
  256
370
   -1
100
AcDbLine
 10
-314.5964583952847
 20
-244.2304713545212
 11
-301.7581103528775
 21
-243.614800650445
  0
LINE
  5
351
100
AcDbEntity
  8
frame_rr9
  6
ByLayer
 62
  256
370
   -1
100
AcDbLine
 10
-352.445241076042
 20
-246.1195431900628
 11
-339.9345692638578
 21
-245.4831474956907
  0
LINE
  5
352
100
AcDbEntity
  8
frame_rr9
  6
ByLayer
 62
  256
370
   -1
100
AcDbLine
 10
-364.7620307986051
 20
-246.7574712421272
 11
-352.4222251092003
 21
-246.1183617722916
  0
LINE
  5
353
100
AcDbEntity
  8
frame_rr9
  6
ByLayer
 62
  256
370
   -1
100
AcDbLine
 10
-376.8774586819981
 20
-247.3960116295289
 11
-364.7393394717253
 21
-246.7562856615473
  0
LINE
  5
354
100
AcDbEntity
  8
frame_rr9
  6
ByLayer
 62
  256
370
   -1
100
AcDbLine
 10
-388.7605444299905
 20
-248.033059385942
 11
-376.8549320552028
 21
-247.394814197132
  0
LINE
  5
355
100
AcDbEntity
  8
frame_rr9
  6
ByLayer
 62
  256
370
   -1
100
AcDbLine
 10
-388.7605444299905
 20
-248.033059385942
 11
-376.8549320552028
 21
-247.394814197132
  0
LINE
  5
356
100
AcDbEntity
  8
frame_rr9
  6
ByLayer
 62
  256
370
   -1
100
AcDbLine
 10
-400.3802984781304
 20
-248.6665084545915
 11
-388.7380132951802
 21
-248.0318413222706
  0
LINE
  5
357
100
AcDbEntity
  8
frame_rr9
  6
ByLayer
 62
  256
370
   -1
100
AcDbLine
 10
-400.3802984781304
 20
-248.6665084545915
 11
-388.7380132951802
 21
-248.0318413222706
  0
LINE
  5
358
100
AcDbEntity
  8
frame_rr9
  6
ByLayer
 62
  256
370
   -1
100
AcDbLine
 10
-411.705716450905
 20
-249.2942513440058
 11
-400.3575788161442
 21
-248.6652595454917
  0
LINE
  5
359
100
AcDbEntity
  8
frame_rr9
  6
ByLayer
 62
  256
370
   -1
100
AcDbLine
 10
-411.705716450905
 20
-249.2942513440058
 11
-400.3575788161442
 21
-248.6652595454917
  0
LINE
  5
35A
100
AcDbEntity
  8
frame_rr9
  6
ByLayer
 62
  256
370
   -1
100
AcDbLine
 10
-422.7057722519738
 20
-249.9141786636451
 11
-411.6826025217559
 21
-249.2929594762552
  0
LINE
  5
35B
100
AcDbEntity
  8
frame_rr9
  6
ByLayer
 62
  256
370
   -1
100
AcDbLine
 10
-433.3494091327988
 20
-250.5241784876097
 11
-422.6820276634762
 21
-249.9128291886616
  0
LINE
  5
35C
100
AcDbEntity
  8
frame_rr9
  6
ByLayer
 62
  256
370
   -1
100
AcDbLine
 10
-433.3494091327988
 20
-250.5241784876097
 11
-422.6820276634762
 21
-249.9128291886616
  0
LINE
  5
35D
100
AcDbEntity
  8
frame_rr9
  6
ByLayer
 62
  256
370
   -1
100
AcDbLine
 10
-453.4429699085957
 20
-251.7059295650859
 11
-443.5796260301212
 21
-251.120611874974
  0
LINE
  5
35E
100
AcDbEntity
  8
frame_rr9
  6
ByLayer
 62
  256
370
   -1
100
AcDbLine
 10
-462.8304951914228
 20
-252.2734342168237
 11
-453.4154006429011
 21
-251.7042782471065
  0
LINE
  5
35F
100
AcDbEntity
  8
frame_rr9
  6
ByLayer
 62
  256
370
   -1
100
AcDbLine
 10
-443.6055277737431
 20
-251.1221354668678
 11
-433.3247549216675
 21
-250.5227533336793
  0
LINE
  5
360
100
AcDbEntity
  8
frame_rr9
  6
ByLayer
 62
  256
370
   -1
100
AcDbLine
 10
-339.9580651772353
 20
-245.4843316076341
 11
-327.3073475986241
 21
-244.852746966043
  0
LINE
  5
361
100
AcDbEntity
  8
frame_rr9
  6
ByLayer
 62
  256
370
   -1
100
AcDbLine
 10
-327.3314781941153
 20
-244.8539399926622
 11
-314.5715352054296
 21
-244.2292636811698
  0
LINE
  5
362
100
AcDbEntity
  8
frame_rr9
  6
ByLayer
 62
  256
370
   -1
100
AcDbLine
 10
-301.7839908711409
 20
-243.6160283246707
 11
-288.8980581313644
 21
-243.0114605053282
  0
LINE
  5
363
100
AcDbEntity
  8
frame_rr9
  6
ByLayer
 62
  256
370
   -1
100
AcDbLine
 10
-270.4225094924136
 20
-242.1710985977941
 11
-257.9594385924607
 21
-241.6205033737724
  0
LINE
  5
364
100
AcDbEntity
  8
frame_rr9
  6
ByLayer
 62
  256
370
   -1
100
AcDbLine
 10
-288.9250296611523
 20
-243.0127113288807
 11
-276.0210290652657
 21
-242.4212623856349
  0
LINE
  5
365
100
AcDbEntity
  8
frame_rr9
  6
ByLayer
 62
  256
370
   -1
100
AcDbLine
 10
-245.470920087816
 20
-241.0811370584145
 11
-232.8314260871621
 21
-240.5472207669979
  0
LINE
  5
366
100
AcDbEntity
  8
frame_rr9
  6
ByLayer
 62
  256
370
   -1
100
AcDbLine
 10
-245.470920087816
 20
-241.0811370584145
 11
-232.8314260871621
 21
-240.5472207669979
  0
LINE
  5
367
100
AcDbEntity
  8
frame_rr9
  6
ByLayer
 62
  256
370
   -1
100
AcDbLine
 10
-232.8538619750755
 20
-240.5481584076615
 11
-220.0826760642414
 21
-240.0201705563299
  0
LINE
  5
368
100
AcDbEntity
  8
frame_rr9
  6
ByLayer
 62
  256
370
   -1
100
AcDbLine
 10
-232.8538619750755
 20
-240.5481584076615
 11
-220.0826760642414
 21
-240.0201705563299
  0
LINE
  5
369
100
AcDbEntity
  8
frame_rr9
  6
ByLayer
 62
  256
370
   -1
100
AcDbLine
 10
-220.1038184383149
 20
-240.0210356641972
 11
-207.1719537107466
 21
-239.4973689021388
  0
LINE
  5
36A
100
AcDbEntity
  8
frame_rr9
  6
ByLayer
 62
  256
370
   -1
100
AcDbLine
 10
-220.1038184383149
 20
-240.0210356641972
 11
-207.1719537107466
 21
-239.4973689021388
  0
LINE
  5
36B
100
AcDbEntity
  8
frame_rr9
  6
ByLayer
 62
  256
370
   -1
100
AcDbLine
 10
-207.1917095986583
 20
-239.498161078057
 11
-194.0701791478028
 21
-238.9772080544601
  0
LINE
  5
36C
100
AcDbEntity
  8
frame_rr9
  6
ByLayer
 62
  256
370
   -1
100
AcDbLine
 10
-207.1917095986583
 20
-239.498161078057
 11
-194.0701791478028
 21
-238.9772080544601
  0
LINE
  5
36D
100
AcDbEntity
  8
frame_rr9
  6
ByLayer
 62
  256
370
   -1
100
AcDbLine
 10
-194.088478551348
 20
-238.9779278671886
 11
-180.7482954706517
 21
-238.4580812312415
  0
LINE
  5
36E
100
AcDbEntity
  8
frame_rr9
  6
ByLayer
 62
  256
370
   -1
100
AcDbLine
 10
-194.088478551348
 20
-238.9779278671886
 11
-180.7482954706517
 21
-238.4580812312415
  0
LINE
  5
36F
100
AcDbEntity
  8
frame_rr9
  6
ByLayer
 62
  256
370
   -1
100
AcDbLine
 10
-180.7650912610376
 20
-238.4587300829559
 11
-167.1772686439473
 21
-237.9383824838469
  0
LINE
  5
370
100
AcDbEntity
  8
frame_rr9
  6
ByLayer
 62
  256
370
   -1
100
AcDbLine
 10
-167.1925357478616
 20
-237.9389624679234
 11
-153.3280866878239
 21
-237.4165065548408
  0
LINE
  5
371
100
AcDbEntity
  8
frame_rr9
  6
ByLayer
 62
  256
370
   -1
100
AcDbLine
 10
-167.1925357478616
 20
-237.9389624679234
 11
-153.3280866878239
 21
-237.4165065548408
  0
LINE
  5
372
100
AcDbEntity
  8
frame_rr9
  6
ByLayer
 62
  256
370
   -1
100
AcDbLine
 10
-153.341820675873
 20
-237.4170203141652
 11
-139.1717582663344
 21
-236.8908487362974
  0
LINE
  5
373
100
AcDbEntity
  8
frame_rr9
  6
ByLayer
 62
  256
370
   -1
100
AcDbLine
 10
-139.1839734746094
 20
-236.8912993286683
 11
-124.6793108090165
 21
-236.3598047352034
  0
LINE
  5
374
100
AcDbEntity
  8
frame_rr9
  6
ByLayer
 62
  256
370
   -1
100
AcDbLine
 10
-124.6900381316214
 20
-236.3601955105529
 11
-109.8217883034209
 21
-235.8217705506793
  0
LINE
  5
375
100
AcDbEntity
  8
frame_rr9
  6
ByLayer
 62
  256
370
   -1
100
AcDbLine
 10
-124.6900381316214
 20
-236.3601955105529
 11
-109.8217883034209
 21
-235.8217705506793
  0
LINE
  5
376
100
AcDbEntity
  8
frame_rr9
  6
ByLayer
 62
  256
370
   -1
100
AcDbLine
 10
-109.8310727902841
 20
-235.8221050430414
 11
-94.57024889292271
 21
-235.2751423659474
  0
LINE
  5
377
100
AcDbEntity
  8
frame_rr9
  6
ByLayer
 62
  256
370
   -1
100
AcDbLine
 10
-94.57814727537092
 20
-235.2754242015279
 11
-78.89576240229522
 21
-234.7183164564017
  0
LINE
  5
378
100
AcDbEntity
  8
frame_rr9
  6
ByLayer
 62
  256
370
   -1
100
AcDbLine
 10
-78.90234065128502
 20
-234.7185492778334
 11
-62.76940789594152
 21
-234.1496891138634
  0
LINE
  5
379
100
AcDbEntity
  8
frame_rr9
  6
ByLayer
 62
  256
370
   -1
100
AcDbLine
 10
-62.77473889715102
 20
-234.1498765197993
 11
-46.16227135298628
 21
-233.5676565861736
  0
LINE
  5
37A
100
AcDbEntity
  8
frame_rr9
  6
ByLayer
 62
  256
370
   -1
100
AcDbLine
 10
-29.04851583774176
 20
-232.9707220051746
 11
-11.39001799627509
 21
-232.3569604798027
  0
LINE
  5
37B
100
AcDbEntity
  8
frame_rr9
  6
ByLayer
 62
  256
370
   -1
100
AcDbLine
 10
-11.39247146469403
 20
-232.3570456351074
 11
8.367568695305989
 21
-231.6721829251074
  0
LINE
  5
37C
100
AcDbEntity
  8
frame_rr9
  6
ByLayer
 62
  256
370
   -1
100
AcDbLine
 10
-11.39247146469403
 20
-232.3570456351074
 11
8.367568695305989
 21
-231.6721829251074
  0
LINE
  5
37D
100
AcDbEntity
  8
frame_rr9
  6
ByLayer
 62
  256
370
   -1
100
AcDbLine
 10
73.55267069811711
 20
-229.4097585703328
 11
8.369217958117032
 21
-231.6721233603328
  0
LINE
  5
37E
100
AcDbEntity
  8
frame_rr9
  6
ByLayer
 62
  256
370
   -1
100
AcDbLine
 10
-46.16643276138585
 20
-233.5678020847684
 11
-29.04544352184654
 21
-232.9706150306754
  0
LINE
  5
37F
100
AcDbEntity
  8
frame_rr9
  6
ByLayer
 62
  256
370
   -1
100
AcDbLine
 10
290.6898405574158
 20
-229.1754964734066
 11
72.71483743741587
 21
-229.4303901334072
  0
ARC
  5
380
100
AcDbEntity
  8
frame_rr9
  6
ByLayer
 62
  256
370
   -1
100
AcDbCircle
 10
293.0944806109579
 20
-2285.528667306247
 40
2056.35457677
100
AcDbArc
 50
85.225240697
 51
90.06699999999999
  0
ARC
  5
381
100
AcDbEntity
  8
frame_rr9
  6
ByLayer
 62
  256
370
   -1
100
AcDbCircle
 10
-179.4177175190419
 20
-7964.648261076247
 40
7755.09708903
100
AcDbArc
 50
84.9938453356
 51
85.23887193660001
  0
LINE
  5
382
100
AcDbEntity
  8
frame_rr9
  6
ByLayer
 62
  256
370
   -1
100
AcDbLine
 10
514.711316741409
 20
-240.6912053081357
 11
511.8996879325747
 21
-240.43544363896
  0
LINE
  5
383
100
AcDbEntity
  8
frame_rr9
  6
ByLayer
 62
  256
370
   -1
100
AcDbLine
 10
520.3030053853762
 20
-241.2051002952334
 11
517.4917695918203
 21
-240.9458464268883
  0
LINE
  5
384
100
AcDbEntity
  8
frame_rr9
  6
ByLayer
 62
  256
370
   -1
100
AcDbLine
 10
525.8918206264124
 20
-241.7260954211113
 11
523.0810058261039
 21
-241.4631187468522
  0
LINE
  5
385
100
AcDbEntity
  8
frame_rr9
  6
ByLayer
 62
  256
370
   -1
100
AcDbLine
 10
525.8918206264124
 20
-241.7260954211113
 11
523.0810058261039
 21
-241.4631187468522
  0
LINE
  5
386
100
AcDbEntity
  8
frame_rr9
  6
ByLayer
 62
  256
370
   -1
100
AcDbLine
 10
520.3030053853762
 20
-241.2051002952334
 11
517.4917695918203
 21
-240.9458464268883
  0
LINE
  5
387
100
AcDbEntity
  8
frame_rr9
  6
ByLayer
 62
  256
370
   -1
100
AcDbLine
 10
517.5075167721342
 20
-240.9472936188154
 11
514.696080973693
 21
-240.689814675898
  0
LINE
  5
388
100
AcDbEntity
  8
frame_rr9
  6
ByLayer
 62
  256
370
   -1
100
AcDbLine
 10
514.711316741409
 20
-240.6912053081357
 11
511.8996879325747
 21
-240.43544363896
  0
LINE
  5
389
100
AcDbEntity
  8
frame_rr9
  6
ByLayer
 62
  256
370
   -1
100
AcDbLine
 10
506.3185175566088
 20
-239.9326833286908
 11
503.5063516835493
 21
-239.6817275706239
  0
LINE
  5
38A
100
AcDbEntity
  8
frame_rr9
  6
ByLayer
 62
  256
370
   -1
100
AcDbLine
 10
506.3185175566088
 20
-239.9326833286908
 11
503.5063516835493
 21
-239.6817275706239
  0
LINE
  5
38B
100
AcDbEntity
  8
frame_rr9
  6
ByLayer
 62
  256
370
   -1
100
AcDbLine
 10
509.1168101882082
 20
-240.1839569188408
 11
506.3048163420646
 21
-239.9314568420905
  0
LINE
  5
38C
100
AcDbEntity
  8
frame_rr9
  6
ByLayer
 62
  256
370
   -1
100
AcDbLine
 10
500.7198883393152
 20
-239.434553341476
 11
497.9073993959
 21
-239.1865132657179
  0
LINE
  5
38D
100
AcDbEntity
  8
frame_rr9
  6
ByLayer
 62
  256
370
   -1
100
AcDbLine
 10
503.519541288731
 20
-239.6829010811721
 11
500.7072103832473
 21
-239.4334319901027
  0
ARC
  5
38E
100
AcDbEntity
  8
frame_rr9
  6
ByLayer
 62
  256
370
   -1
100
AcDbCircle
 10
-179.4177175190419
 20
-7964.648261076247
 40
7755.09708903
100
AcDbArc
 50
84.9938453356
 51
85.23887193660001
  0
LINE
  5
38F
100
AcDbEntity
  8
frame_rr9
  6
ByLayer
 62
  256
370
   -1
100
AcDbLine
 10
500.7198883393152
 20
-239.434553341476
 11
497.9073993959
 21
-239.1865132657179
  0
LINE
  5
390
100
AcDbEntity
  8
frame_rr9
  6
ByLayer
 62
  256
370
   -1
100
AcDbLine
 10
511.9144122322945
 20
-240.4367786548007
 11
509.1025974075595
 21
-240.1826766076807
  0
LINE
  5
391
100
AcDbEntity
  8
frame_rr9
  6
ByLayer
 62
  256
370
   -1
100
AcDbLine
 10
523.0977756466563
 20
-241.4646820142291
 11
520.2867468524784
 21
-241.2035955687701
  0
LINE
  5
392
100
AcDbEntity
  8
frame_rr9
  6
ByLayer
 62
  256
370
   -1
100
AcDbLine
 10
531.4777070495444
 20
-242.2546437222704
 11
528.6673412204531
 21
-241.9877136353533
  0
LINE
  5
393
100
AcDbEntity
  8
frame_rr9
  6
ByLayer
 62
  256
370
   -1
100
AcDbLine
 10
528.6851334003053
 20
-241.989397129683
 11
525.8745395883595
 21
-241.7244725749379
  0
LINE
  5
394
100
AcDbEntity
  8
frame_rr9
  6
ByLayer
 62
  256
370
   -1
100
AcDbLine
 10
534.2695346612115
 20
-242.5218917497528
 11
531.4594038094671
 21
-242.2528984789774
  0
LINE
  5
395
100
AcDbEntity
  8
frame_rr9
  6
ByLayer
 62
  256
370
   -1
100
AcDbLine
 10
537.0606093286062
 20
-242.7911977315946
 11
534.2507204487007
 21
-242.520083625275
  0
LINE
  5
396
100
AcDbEntity
  8
frame_rr9
  6
ByLayer
 62
  256
370
   -1
100
AcDbLine
 10
539.850924151587
 20
-243.0626181558819
 11
537.0412842380132
 21
-242.7893255623317
  0
LINE
  5
397
100
AcDbEntity
  8
frame_rr9
  6
ByLayer
 62
  256
370
   -1
100
AcDbLine
 10
545.4292466987364
 20
-243.6120281274748
 11
542.6201257013023
 21
-243.3342056044059
  0
LINE
  5
398
100
AcDbEntity
  8
frame_rr9
  6
ByLayer
 62
  256
370
   -1
100
AcDbLine
 10
542.6404722369394
 20
-243.3362094793599
 11
539.8310882841891
 21
-243.0606807468934
  0
LINE
  5
399
100
AcDbEntity
  8
frame_rr9
  6
ByLayer
 62
  256
370
   -1
100
AcDbLine
 10
548.2172406587196
 20
-243.8901304944179
 11
545.4083896110936
 21
-243.6099565290603
  0
LINE
  5
39A
100
AcDbEntity
  8
frame_rr9
  6
ByLayer
 62
  256
370
   -1
100
AcDbLine
 10
551.0044472466861
 20
-244.1705729431731
 11
548.195873143361
 21
-243.8879898838407
  0
ARC
  5
39B
100
AcDbEntity
  8
frame_rr9
  6
ByLayer
 62
  256
370
   -1
100
AcDbCircle
 10
267.4737801209579
 20
-2804.226375366249
 40
2576.95932668
100
AcDbArc
 50
75.6560362076
 51
79.0164391463
  0
LINE
  5
39C
100
AcDbEntity
  8
frame_rr9
  6
ByLayer
 62
  256
370
   -1
100
AcDbLine
 10
911.9631597107717
 20
-309.1655445751805
 11
905.8486254427044
 21
-307.5892014848183
  0
LINE
  5
39D
100
AcDbEntity
  8
frame_rr9
  6
ByLayer
 62
  256
370
   -1
100
AcDbLine
 10
918.8977336001036
 20
-310.986610651629
 11
911.8551380678515
 21
-309.1374389911642
  0
LINE
  5
39E
100
AcDbEntity
  8
frame_rr9
  6
ByLayer
 62
  256
370
   -1
100
AcDbLine
 10
926.7256976595708
 20
-313.0737935485331
 11
918.806516397214
 21
-310.9624756877445
  0
LINE
  5
39F
100
AcDbEntity
  8
frame_rr9
  6
ByLayer
 62
  256
370
   -1
100
AcDbLine
 10
926.7256976595708
 20
-313.0737935485331
 11
918.806516397214
 21
-310.9624756877445
  0
LINE
  5
3A0
100
AcDbEntity
  8
frame_rr9
  6
ByLayer
 62
  256
370
   -1
100
AcDbLine
 10
935.3888986944374
 20
-315.4148099638535
 11
926.6446072360559
 21
-313.0520282725204
  0
LINE
  5
3A1
100
AcDbEntity
  8
frame_rr9
  6
ByLayer
 62
  256
370
   -1
100
AcDbLine
 10
935.3888986944374
 20
-315.4148099638535
 11
926.6446072360559
 21
-313.0520282725204
  0
LINE
  5
3A2
100
AcDbEntity
  8
frame_rr9
  6
ByLayer
 62
  256
370
   -1
100
AcDbLine
 10
965.842228645529
 20
-323.8458634342373
 11
954.9314598035513
 21
-320.7927844699441
  0
LINE
  5
3A3
100
AcDbEntity
  8
frame_rr9
  6
ByLayer
 62
  256
370
   -1
100
AcDbLine
 10
955.0007569646924
 20
-320.8120679231861
 11
944.7606717165005
 21
-317.9784056801004
  0
LINE
  5
3A4
100
AcDbEntity
  8
frame_rr9
  6
ByLayer
 62
  256
370
   -1
100
AcDbLine
 10
944.8319161100286
 20
-317.998007304913
 11
935.313989989702
 21
-315.394444152814
  0
LINE
  5
3A5
100
AcDbEntity
  8
frame_rr9
  6
ByLayer
 62
  256
370
   -1
100
AcDbLine
 10
977.3036105775685
 20
-327.0883768757743
 11
965.7736336758854
 21
-323.8265635600522
  0
LINE
  5
3A6
100
AcDbEntity
  8
frame_rr9
  6
ByLayer
 62
  256
370
   -1
100
AcDbLine
 10
989.3324700896338
 20
-330.5286581358495
 11
977.2347606623249
 21
-327.0687928384776
  0
LINE
  5
3A7
100
AcDbEntity
  8
frame_rr9
  6
ByLayer
 62
  256
370
   -1
100
AcDbLine
 10
1001.876552754661
 20
-334.1557967594608
 11
989.2625863358063
 21
-330.5085618502183
  0
LINE
  5
3A8
100
AcDbEntity
  8
frame_rr9
  6
ByLayer
 62
  256
370
   -1
100
AcDbLine
 10
1014.88371335143
 20
-337.958904266269
 11
1001.804965475109
 21
-334.1349821149347
  0
LINE
  5
3A9
100
AcDbEntity
  8
frame_rr9
  6
ByLayer
 62
  256
370
   -1
100
AcDbLine
 10
1028.301869908413
 20
-341.9271018250531
 11
1014.809816108706
 21
-337.937174801406
  0
LINE
  5
3AA
100
AcDbEntity
  8
frame_rr9
  6
ByLayer
 62
  256
370
   -1
100
AcDbLine
 10
380.0117322209579
 20
-530.7381639562477
 11
-273.0804594190426
 21
-530.7381639562477
  0
ARC
  5
3AB
100
AcDbEntity
  8
frame_rr9
  6
ByLayer
 62
  256
370
   -1
100
AcDbCircle
 10
358.1750967709576
 20
-26792.03647567625
 40
26261.30739905
100
AcDbArc
 50
89.7069195367
 51
89.9523123749
  0
ARC
  5
3AC
100
AcDbEntity
  8
frame_rr9
  6
ByLayer
 62
  256
370
   -1
100
AcDbCircle
 10
579.3623142809577
 20
6733.508815393754
 40
7265.2476521
100
AcDbArc
 50
271.5518739659
 51
272.5355871667
  0
LINE
  5
3AD
100
AcDbEntity
  8
frame_rr9
  6
ByLayer
 62
  256
370
   -1
100
AcDbLine
 10
-1205.365207876998
 20
-467.9821345924737
 11
-1218.33786016042
 21
-464.5290559975506
  0
LINE
  5
3AE
100
AcDbEntity
  8
frame_rr9
  6
ByLayer
 62
  256
370
   -1
100
AcDbLine
 10
-1178.595626743492
 20
-474.7878248540293
 11
-1192.342057482574
 21
-471.347457037078
  0
LINE
  5
3AF
100
AcDbEntity
  8
frame_rr9
  6
ByLayer
 62
  256
370
   -1
100
AcDbLine
 10
-1178.595626743492
 20
-474.7878248540293
 11
-1192.342057482574
 21
-471.347457037078
  0
LINE
  5
3B0
100
AcDbEntity
  8
frame_rr9
  6
ByLayer
 62
  256
370
   -1
100
AcDbLine
 10
-1192.157004918885
 20
-471.3945224788412
 11
-1205.541141539834
 21
-467.9359890056114
  0
LINE
  5
3B1
100
AcDbEntity
  8
frame_rr9
  6
ByLayer
 62
  256
370
   -1
100
AcDbLine
 10
-1150.615988524071
 20
-481.4221845362766
 11
-1164.939436841236
 21
-478.0890096356396
  0
LINE
  5
3B2
100
AcDbEntity
  8
frame_rr9
  6
ByLayer
 62
  256
370
   -1
100
AcDbLine
 10
-1150.615988524071
 20
-481.4221845362766
 11
-1164.939436841236
 21
-478.0890096356396
  0
LINE
  5
3B3
100
AcDbEntity
  8
frame_rr9
  6
ByLayer
 62
  256
370
   -1
100
AcDbLine
 10
-1136.29934687261
 20
-484.6158405267944
 11
-1150.837518649725
 21
-481.3716928861929
  0
LINE
  5
3B4
100
AcDbEntity
  8
frame_rr9
  6
ByLayer
 62
  256
370
   -1
100
AcDbLine
 10
-1136.29934687261
 20
-484.6158405267944
 11
-1150.837518649725
 21
-481.3716928861929
  0
LINE
  5
3B5
100
AcDbEntity
  8
frame_rr9
  6
ByLayer
 62
  256
370
   -1
100
AcDbLine
 10
-1107.267820604235
 20
-490.6379223605008
 11
-1122.08786864307
 21
-487.6426908437267
  0
LINE
  5
3B6
100
AcDbEntity
  8
frame_rr9
  6
ByLayer
 62
  256
370
   -1
100
AcDbLine
 10
-1121.832854475703
 20
-487.6956150188676
 11
-1136.536559493375
 21
-484.564115172887
  0
LINE
  5
3B7
100
AcDbEntity
  8
frame_rr9
  6
ByLayer
 62
  256
370
   -1
100
AcDbLine
 10
-1121.832854475703
 20
-487.6956150188676
 11
-1136.536559493375
 21
-484.564115172887
  0
LINE
  5
3B8
100
AcDbEntity
  8
frame_rr9
  6
ByLayer
 62
  256
370
   -1
100
AcDbLine
 10
-1164.731708927625
 20
-478.1382854310507
 11
-1178.791243565446
 21
-474.7397038049641
  0
LINE
  5
3B9
100
AcDbEntity
  8
frame_rr9
  6
ByLayer
 62
  256
370
   -1
100
AcDbLine
 10
-1092.653350357966
 20
-493.419980344768
 11
-1107.542637399036
 21
-490.5839804329076
  0
LINE
  5
3BA
100
AcDbEntity
  8
frame_rr9
  6
ByLayer
 62
  256
370
   -1
100
AcDbLine
 10
-1095.012402266825
 20
-492.980375438808
 11
-1080.403721494254
 21
-495.6076208372915
  0
LINE
  5
3BB
100
AcDbEntity
  8
frame_rr9
  6
ByLayer
 62
  256
370
   -1
100
AcDbLine
 10
-1095.012402266825
 20
-492.980375438808
 11
-1080.403721494254
 21
-495.6076208372915
  0
LINE
  5
3BC
100
AcDbEntity
  8
frame_rr9
  6
ByLayer
 62
  256
370
   -1
100
AcDbLine
 10
-1080.685436841516
 20
-495.5586182891852
 11
-1065.960599464314
 21
-498.0332346756159
  0
LINE
  5
3BD
100
AcDbEntity
  8
frame_rr9
  6
ByLayer
 62
  256
370
   -1
100
AcDbLine
 10
-1066.240148396093
 20
-497.9878810232539
 11
-1051.348791071108
 21
-500.3173474428247
  0
LINE
  5
3BE
100
AcDbEntity
  8
frame_rr9
  6
ByLayer
 62
  256
370
   -1
100
AcDbLine
 10
-1066.240148396093
 20
-497.9878810232539
 11
-1051.348791071108
 21
-500.3173474428247
  0
LINE
  5
3BF
100
AcDbEntity
  8
frame_rr9
  6
ByLayer
 62
  256
370
   -1
100
AcDbLine
 10
-1051.623323462911
 20
-500.2759624938045
 11
-1036.515082846991
 21
-502.4677579917083
  0
LINE
  5
3C0
100
AcDbEntity
  8
frame_rr9
  6
ByLayer
 62
  256
370
   -1
100
AcDbLine
 10
-1036.781968488693
 20
-502.4305076453807
 11
-1021.406481238683
 21
-504.4921112668107
  0
LINE
  5
3C1
100
AcDbEntity
  8
frame_rr9
  6
ByLayer
 62
  256
370
   -1
100
AcDbLine
 10
-1021.663387907899
 20
-504.4590181795376
 11
-1005.970290680647
 21
-506.3979089696864
  0
LINE
  5
3C2
100
AcDbEntity
  8
frame_rr9
  6
ByLayer
 62
  256
370
   -1
100
AcDbLine
 10
-1006.215240535005
 20
-506.3688714051812
 11
-990.1541699873594
 21
-508.192528409242
  0
LINE
  5
3C3
100
AcDbEntity
  8
frame_rr9
  6
ByLayer
 62
  256
370
   -1
100
AcDbLine
 10
-1006.215240535005
 20
-506.3688714051812
 11
-990.1541699873594
 21
-508.192528409242
  0
LINE
  5
3C4
100
AcDbEntity
  8
frame_rr9
  6
ByLayer
 62
  256
370
   -1
100
AcDbLine
 10
-990.3855725410392
 20
-508.167344357215
 11
-973.9061653298452
 21
-509.8832466203805
  0
LINE
  5
3C5
100
AcDbEntity
  8
frame_rr9
  6
ByLayer
 62
  256
370
   -1
100
AcDbLine
 10
-974.1228276980053
 20
-509.8616401764101
 11
-957.1747204801125
 21
-511.4772667438735
  0
LINE
  5
3C6
100
AcDbEntity
  8
frame_rr9
  6
ByLayer
 62
  256
370
   -1
100
AcDbLine
 10
-957.3758375235282
 20
-511.4589140847892
 11
-939.9086669557821
 21
-512.9817440017432
  0
LINE
  5
3C7
100
AcDbEntity
  8
frame_rr9
  6
ByLayer
 62
  256
370
   -1
100
AcDbLine
 10
-957.3758375235282
 20
-511.4589140847892
 11
-939.9086669557821
 21
-512.9817440017432
  0
LINE
  5
3C8
100
AcDbEntity
  8
frame_rr9
  6
ByLayer
 62
  256
370
   -1
100
AcDbLine
 10
-940.0937952470938
 20
-512.9662969123833
 11
-922.0571979863423
 21
-514.4038092240211
  0
LINE
  5
3C9
100
AcDbEntity
  8
frame_rr9
  6
ByLayer
 62
  256
370
   -1
100
AcDbLine
 10
-922.2262181136277
 20
-514.3909148656237
 11
-903.5698308167177
 21
-515.7505886171381
  0
LINE
  5
3CA
100
AcDbEntity
  8
frame_rr9
  6
ByLayer
 62
  256
370
   -1
100
AcDbLine
 10
-903.7229025265285
 20
-515.7399049324556
 11
-884.3963618503074
 21
-517.0292191690396
  0
LINE
  5
3CB
100
AcDbEntity
  8
frame_rr9
  6
ByLayer
 62
  256
370
   -1
100
AcDbLine
 10
-884.5338760696193
 20
-517.0204258995617
 11
-864.4868186709339
 21
-518.246859666408
  0
LINE
  5
3CC
100
AcDbEntity
  8
frame_rr9
  6
ByLayer
 62
  256
370
   -1
100
AcDbLine
 10
-864.6093497156751
 20
-518.2396653690237
 11
-843.7914122513732
 21
-519.4106977113255
  0
LINE
  5
3CD
100
AcDbEntity
  8
frame_rr9
  6
ByLayer
 62
  256
370
   -1
100
AcDbLine
 10
-843.8996726915614
 20
-519.4048434036456
 11
-822.26049181849
 21
-520.527953366596
  0
LINE
  5
3CE
100
AcDbEntity
  8
frame_rr9
  6
ByLayer
 62
  256
370
   -1
100
AcDbLine
 10
-822.3552916516426
 20
-520.5232135274794
 11
-799.844504026649
 21
-521.6058801562707
  0
LINE
  5
3CF
100
AcDbEntity
  8
frame_rr9
  6
ByLayer
 62
  256
370
   -1
100
AcDbLine
 10
-822.3552916516426
 20
-520.5232135274794
 11
-799.844504026649
 21
-521.6058801562707
  0
LINE
  5
3D0
100
AcDbEntity
  8
frame_rr9
  6
ByLayer
 62
  256
370
   -1
100
AcDbLine
 10
-799.9267150926455
 20
-521.6020617988136
 11
-776.4939573725767
 21
-522.6517641386392
  0
LINE
  5
3D1
100
AcDbEntity
  8
frame_rr9
  6
ByLayer
 62
  256
370
   -1
100
AcDbLine
 10
-776.5644833648723
 20
-522.6487045961082
 11
-752.1593922065761
 21
-523.672921692161
  0
ARC
  5
3D2
100
AcDbEntity
  8
frame_rr9
  6
ByLayer
 62
  256
370
   -1
100
AcDbCircle
 10
-292.6648753190424
 20
23729.64641614375
 40
24260.39247687
100
AcDbArc
 50
269.6188673498
 51
270.0462049151
  0
LINE
  5
3D3
100
AcDbEntity
  8
frame_rr9
  6
ByLayer
 62
  256
370
   -1
100
AcDbLine
 10
911.3259671850664
 20
-524.1529670226766
 11
900.7630481513486
 21
-524.6262801279942
  0
LINE
  5
3D4
100
AcDbEntity
  8
frame_rr9
  6
ByLayer
 62
  256
370
   -1
100
AcDbLine
 10
922.2964749764262
 20
-523.6433876765013
 11
911.2851458839897
 21
-524.1548296119894
  0
LINE
  5
3D5
100
AcDbEntity
  8
frame_rr9
  6
ByLayer
 62
  256
370
   -1
100
AcDbLine
 10
945.4951210382434
 20
-522.5146219219647
 11
933.65991063683
 21
-523.0985288672398
  0
LINE
  5
3D6
100
AcDbEntity
  8
frame_rr9
  6
ByLayer
 62
  256
370
   -1
100
AcDbLine
 10
945.4951210382434
 20
-522.5146219219647
 11
933.65991063683
 21
-523.0985288672398
  0
LINE
  5
3D7
100
AcDbEntity
  8
frame_rr9
  6
ByLayer
 62
  256
370
   -1
100
AcDbLine
 10
957.6735508119408
 20
-521.8979908703784
 11
945.4628691602692
 21
-522.5162339952703
  0
LINE
  5
3D8
100
AcDbEntity
  8
frame_rr9
  6
ByLayer
 62
  256
370
   -1
100
AcDbLine
 10
933.6944967766416
 20
-523.0968465206149
 11
922.2590705616401
 21
-523.6451530694223
  0
LINE
  5
3D9
100
AcDbEntity
  8
frame_rr9
  6
ByLayer
 62
  256
370
   -1
100
AcDbLine
 10
983.0650537660994
 20
-520.566611279175
 11
970.1763684223707
 21
-521.2497341127463
  0
LINE
  5
3DA
100
AcDbEntity
  8
frame_rr9
  6
ByLayer
 62
  256
370
   -1
100
AcDbLine
 10
970.2050761173792
 20
-521.2482291059071
 11
957.6432361516023
 21
-521.8995441935642
  0
LINE
  5
3DB
100
AcDbEntity
  8
frame_rr9
  6
ByLayer
 62
  256
370
   -1
100
AcDbLine
 10
996.2288923697328
 20
-519.8544111174901
 11
983.0376745842055
 21
-520.5680774801242
  0
LINE
  5
3DC
100
AcDbEntity
  8
frame_rr9
  6
ByLayer
 62
  256
370
   -1
100
AcDbLine
 10
1009.672041017959
 20
-519.1129015844147
 11
996.2026037267868
 21
-519.8558472592604
  0
LINE
  5
3DD
100
AcDbEntity
  8
frame_rr9
  6
ByLayer
 62
  256
370
   -1
100
AcDbLine
 10
1023.369980592508
 20
-518.3433550281395
 11
1009.646636731844
 21
-519.1143157983456
  0
LINE
  5
3DE
100
AcDbEntity
  8
frame_rr9
  6
ByLayer
 62
  256
370
   -1
100
AcDbLine
 10
1037.298216998774
 20
-517.5470433178707
 11
1023.345279504771
 21
-518.3447549665859
  0
LINE
  5
3DF
100
AcDbEntity
  8
frame_rr9
  6
ByLayer
 62
  256
370
   -1
100
AcDbLine
 10
-1218.16965775966
 20
-464.574456549295
 11
-1227.077814189497
 21
-462.1366680055074
  0
ARC
  5
3E0
100
AcDbEntity
  8
frame_rr9
  6
ByLayer
 62
  256
370
   -1
100
AcDbCircle
 10
-298.9733899095272
 20
-3709.40862465265
 40
3461.016162328792
100
AcDbArc
 50
92.71360515900619
 51
97.09993526542311
  0
ARC
  5
3E1
100
AcDbEntity
  8
frame_rr9
  6
ByLayer
 62
  256
370
   -1
100
AcDbCircle
 10
440.1082045164297
 20
-1728.665988628031
 40
1488.631793238693
100
AcDbArc
 50
77.6518185619326
 51
85.7277694103677
  0
ARC
  5
3E2
100
AcDbEntity
  8
frame_rr9
  6
ByLayer
 62
  256
370
   -1
100
AcDbCircle
 10
-38.72206181724242
 20
94978.02388239253
 40
95510.57388447496
100
AcDbArc
 50
270.3186802294214
 51
270.488820879124
  0
ARC
  5
3E3
100
AcDbEntity
  8
frame_rr9
  6
ByLayer
 62
  256
370
   -1
100
AcDbCircle
 10
-442.3771687863785
 20
6803.476774934053
 40
7333.695364733715
100
AcDbArc
 50
267.5790518091286
 51
269.908848516313
  0
LINE
  5
3E4
100
AcDbEntity
  8
frame_rr9
  6
ByLayer
 62
  256
370
   -1
100
AcDbLine
 10
-1184.920677990323
 20
-359.923817792809
 11
-1170.513510678944
 21
-352.2831177660492
  0
LINE
  5
3E5
100
AcDbEntity
  8
frame_rr9
  6
ByLayer
 62
  256
370
   -1
100
AcDbLine
 10
-1199.162214063281
 20
-367.8330750173497
 11
-1184.920677990323
 21
-359.923817792809
  0
LINE
  5
3E6
100
AcDbEntity
  8
frame_rr9
  6
ByLayer
 62
  256
370
   -1
100
AcDbLine
 10
-1226.87955370567
 20
-384.2286923771916
 11
-1213.170909200753
 21
-375.9537472690256
  0
LINE
  5
3E7
100
AcDbEntity
  8
frame_rr9
  6
ByLayer
 62
  256
370
   -1
100
AcDbLine
 10
-1213.170909200753
 20
-375.9537472690256
 11
-1199.162214063281
 21
-367.8330750173497
  0
LINE
  5
3E8
100
AcDbEntity
  8
frame_rr9
  6
ByLayer
 62
  256
370
   -1
100
AcDbLine
 10
-1170.513510678944
 20
-352.2831177660492
 11
-1156.007921826211
 21
-344.9681171077155
  0
LINE
  5
3E9
100
AcDbEntity
  8
frame_rr9
  6
ByLayer
 62
  256
370
   -1
100
AcDbLine
 10
-1156.007921826211
 20
-344.9681171077155
 11
-1141.471121129189
 21
-338.0359579884532
  0
LINE
  5
3EA
100
AcDbEntity
  8
frame_rr9
  6
ByLayer
 62
  256
370
   -1
100
AcDbLine
 10
-1141.471121129189
 20
-338.0359579884532
 11
-1126.969828386338
 21
-331.5432604839359
  0
LINE
  5
3EB
100
AcDbEntity
  8
frame_rr9
  6
ByLayer
 62
  256
370
   -1
100
AcDbLine
 10
-1126.969828386338
 20
-331.5432604839359
 11
-1112.541369479609
 21
-325.5153189715261
  0
LINE
  5
3EC
100
AcDbEntity
  8
frame_rr9
  6
ByLayer
 62
  256
370
   -1
100
AcDbLine
 10
-1112.541369479609
 20
-325.5153189715261
 11
-1098.177509720367
 21
-319.9288729962042
  0
LINE
  5
3ED
100
AcDbEntity
  8
frame_rr9
  6
ByLayer
 62
  256
370
   -1
100
AcDbLine
 10
-1098.177509720367
 20
-319.9288729962042
 11
-1083.866095231109
 21
-314.7564853431756
  0
LINE
  5
3EE
100
AcDbEntity
  8
frame_rr9
  6
ByLayer
 62
  256
370
   -1
100
AcDbLine
 10
-1083.866095231109
 20
-314.7564853431754
 11
-1069.594972134334
 21
-309.9707187976455
  0
LINE
  5
3EF
100
AcDbEntity
  8
frame_rr9
  6
ByLayer
 62
  256
370
   -1
100
AcDbLine
 10
-1069.594972134334
 20
-309.9707187976455
 11
-1055.351986552538
 21
-305.54413614482
  0
LINE
  5
3F0
100
AcDbEntity
  8
frame_rr9
  6
ByLayer
 62
  256
370
   -1
100
AcDbLine
 10
-1055.351986552538
 20
-305.54413614482
 11
-1041.124984608221
 21
-301.4493001699039
  0
LINE
  5
3F1
100
AcDbEntity
  8
frame_rr9
  6
ByLayer
 62
  256
370
   -1
100
AcDbLine
 10
-1041.124984608221
 20
-301.4493001699039
 11
-1026.901812423879
 21
-297.6587736581033
  0
LINE
  5
3F2
100
AcDbEntity
  8
frame_rr9
  6
ByLayer
 62
  256
370
   -1
100
AcDbLine
 10
-1026.901812423879
 20
-297.6587736581033
 11
-1012.67031612201
 21
-294.1451193946234
  0
LINE
  5
3F3
100
AcDbEntity
  8
frame_rr9
  6
ByLayer
 62
  256
370
   -1
100
AcDbLine
 10
-1012.67031612201
 20
-294.1451193946234
 11
-998.4183418251132
 21
-290.8809001646698
  0
LINE
  5
3F4
100
AcDbEntity
  8
frame_rr9
  6
ByLayer
 62
  256
370
   -1
100
AcDbLine
 10
-998.4183418251132
 20
-290.8809001646698
 11
-984.1337356556853
 21
-287.8386787534478
  0
LINE
  5
3F5
100
AcDbEntity
  8
frame_rr9
  6
ByLayer
 62
  256
370
   -1
100
AcDbLine
 10
-984.1337356556853
 20
-287.8386787534478
 11
-969.8043437362232
 21
-284.9910179461631
  0
LINE
  5
3F6
100
AcDbEntity
  8
frame_rr9
  6
ByLayer
 62
  256
370
   -1
100
AcDbLine
 10
-969.8043437362232
 20
-284.9910179461631
 11
-955.4180121892261
 21
-282.3104805280211
  0
LINE
  5
3F7
100
AcDbEntity
  8
frame_rr9
  6
ByLayer
 62
  256
370
   -1
100
AcDbLine
 10
-955.4180121892261
 20
-282.3104805280211
 11
-940.9625871371911
 21
-279.7696292842274
  0
LINE
  5
3F8
100
AcDbEntity
  8
frame_rr9
  6
ByLayer
 62
  256
370
   -1
100
AcDbLine
 10
-940.9625871371911
 20
-279.7696292842274
 11
-926.4259147026162
 21
-277.3410269999872
  0
LINE
  5
3F9
100
AcDbEntity
  8
frame_rr9
  6
ByLayer
 62
  256
370
   -1
100
AcDbLine
 10
-926.4259147026162
 20
-277.3410269999873
 11
-911.7958410079989
 21
-274.9972364605064
  0
LINE
  5
3FA
100
AcDbEntity
  8
frame_rr9
  6
ByLayer
 62
  256
370
   -1
100
AcDbLine
 10
-911.7958410079989
 20
-274.9972364605064
 11
-897.0655484694819
 21
-272.7125807678412
  0
LINE
  5
3FB
100
AcDbEntity
  8
frame_rr9
  6
ByLayer
 62
  256
370
   -1
100
AcDbLine
 10
-897.0655484694819
 20
-272.7125807678412
 11
-882.2902539168365
 21
-270.4818467074409
  0
LINE
  5
3FC
100
AcDbEntity
  8
frame_rr9
  6
ByLayer
 62
  256
370
   -1
100
AcDbLine
 10
-882.2902539168365
 20
-270.4818467074409
 11
-867.5651963821717
 21
-268.3130234411371
  0
LINE
  5
3FD
100
AcDbEntity
  8
frame_rr9
  6
ByLayer
 62
  256
370
   -1
100
AcDbLine
 10
-867.5651963821717
 20
-268.3130234411371
 11
-852.9862819343045
 21
-266.2143201703677
  0
LINE
  5
3FE
100
AcDbEntity
  8
frame_rr9
  6
ByLayer
 62
  256
370
   -1
100
AcDbLine
 10
-852.9862819343045
 20
-266.2143201703677
 11
-838.64941664205
 21
-264.1939460965709
  0
LINE
  5
3FF
100
AcDbEntity
  8
frame_rr9
  6
ByLayer
 62
  256
370
   -1
100
AcDbLine
 10
-838.64941664205
 20
-264.1939460965709
 11
-824.6505065742247
 21
-262.2601104211845
  0
LINE
  5
400
100
AcDbEntity
  8
frame_rr9
  6
ByLayer
 62
  256
370
   -1
100
AcDbLine
 10
-824.6505065742247
 20
-262.2601104211845
 11
-811.0854577996436
 21
-260.4210223456464
  0
LINE
  5
401
100
AcDbEntity
  8
frame_rr9
  6
ByLayer
 62
  256
370
   -1
100
AcDbLine
 10
-811.0854577996436
 20
-260.4210223456464
 11
-798.0501763871227
 21
-258.6848910713946
  0
ARC
  5
402
100
AcDbEntity
  8
frame_rr9
  6
ByLayer
 62
  256
370
   -1
100
AcDbCircle
 10
-298.9733899095272
 20
-3709.40862465265
 40
3486.016162328792
100
AcDbArc
 50
92.71360515900619
 51
97.09993526542311
  0
LINE
  5
403
100
AcDbEntity
  8
frame_rr9
  6
ByLayer
 62
  256
370
   -1
100
AcDbLine
 10
-736.3343423689596
 20
-250.8899115334251
 11
-729.6928024177071
 21
-250.1043355084414
  0
LINE
  5
404
100
AcDbEntity
  8
frame_rr9
  6
ByLayer
 62
  256
370
   -1
100
AcDbLine
 10
-744.1769921639836
 20
-251.8359087697611
 11
-736.3343423689596
 21
-250.8899115334251
  0
LINE
  5
405
100
AcDbEntity
  8
frame_rr9
  6
ByLayer
 62
  256
370
   -1
100
AcDbLine
 10
-753.1248457339636
 20
-252.9341180160112
 11
-744.1769921639836
 21
-251.8359087697611
  0
LINE
  5
406
100
AcDbEntity
  8
frame_rr9
  6
ByLayer
 62
  256
370
   -1
100
AcDbLine
 10
-763.0819970100831
 20
-254.1763300707376
 11
-753.1248457339636
 21
-252.9341180160112
  0
LINE
  5
407
100
AcDbEntity
  8
frame_rr9
  6
ByLayer
 62
  256
370
   -1
100
AcDbLine
 10
-773.952539923527
 20
-255.5543357325024
 11
-763.0819970100831
 21
-254.1763300707377
  0
LINE
  5
408
100
AcDbEntity
  8
frame_rr9
  6
ByLayer
 62
  256
370
   -1
100
AcDbLine
 10
-785.6405684054787
 20
-257.0599257998674
 11
-773.952539923527
 21
-255.5543357325023
  0
LINE
  5
409
100
AcDbEntity
  8
frame_rr9
  6
ByLayer
 62
  256
370
   -1
100
AcDbLine
 10
-798.0501763871227
 20
-258.6848910713946
 11
-785.6405684054787
 21
-257.0599257998674
  0
LINE
  5
40A
100
AcDbEntity
  8
frame_rr9
  6
ByLayer
 62
  256
370
   -1
100
AcDbLine
 10
-168.1339459633631
 20
-212.9566938198171
 11
-154.2694969033254
 21
-212.4342379067346
  0
LINE
  5
40B
100
AcDbEntity
  8
frame_rr9
  6
ByLayer
 62
  256
370
   -1
100
AcDbLine
 10
-181.7217685804534
 20
-213.4770414189261
 11
-168.1339459633631
 21
-212.9566938198171
  0
LINE
  5
40C
100
AcDbEntity
  8
frame_rr9
  6
ByLayer
 62
  256
370
   -1
100
AcDbLine
 10
-195.0619516611499
 20
-213.996888054873
 11
-181.7217685804536
 21
-213.477041418926
  0
LINE
  5
40D
100
AcDbEntity
  8
frame_rr9
  6
ByLayer
 62
  256
370
   -1
100
AcDbLine
 10
-221.1153468395735
 20
-215.0415078405283
 11
-208.1834821120052
 21
-214.5178410784699
  0
LINE
  5
40E
100
AcDbEntity
  8
frame_rr9
  6
ByLayer
 62
  256
370
   -1
100
AcDbLine
 10
-208.1834821120052
 20
-214.5178410784699
 11
-195.0619516611497
 21
-213.9968880548731
  0
LINE
  5
40F
100
AcDbEntity
  8
frame_rr9
  6
ByLayer
 62
  256
370
   -1
100
AcDbLine
 10
-233.8865327504079
 20
-215.5694956918599
 11
-221.1153468395735
 21
-215.0415078405283
  0
LINE
  5
410
100
AcDbEntity
  8
frame_rr9
  6
ByLayer
 62
  256
370
   -1
100
AcDbLine
 10
-246.5260267510615
 20
-216.1034119832766
 11
-233.8865327504079
 21
-215.5694956918599
  0
LINE
  5
411
100
AcDbEntity
  8
frame_rr9
  6
ByLayer
 62
  256
370
   -1
100
AcDbLine
 10
-259.0628157480882
 20
-216.6448640655898
 11
-246.5260267510615
 21
-216.1034119832766
  0
LINE
  5
412
100
AcDbEntity
  8
frame_rr9
  6
ByLayer
 62
  256
370
   -1
100
AcDbLine
 10
-271.525886648041
 20
-217.1954592896115
 11
-259.0628157480882
 21
-216.6448640655898
  0
LINE
  5
413
100
AcDbEntity
  8
frame_rr9
  6
ByLayer
 62
  256
370
   -1
100
AcDbLine
 10
-283.9442263574733
 20
-217.7568050061532
 11
-271.525886648041
 21
-217.1954592896115
  0
LINE
  5
414
100
AcDbEntity
  8
frame_rr9
  6
ByLayer
 62
  256
370
   -1
100
AcDbLine
 10
-302.9556241988602
 20
-218.6434979093247
 11
-290.0696914590837
 21
-218.0389300899822
  0
LINE
  5
415
100
AcDbEntity
  8
frame_rr9
  6
ByLayer
 62
  256
370
   -1
100
AcDbLine
 10
-290.0696914590837
 20
-218.0389300899822
 11
-277.1656908631971
 21
-217.4474811467365
  0
LINE
  5
416
100
AcDbEntity
  8
frame_rr9
  6
ByLayer
 62
  256
370
   -1
100
AcDbLine
 10
-315.7939722412675
 20
-219.259168613401
 11
-302.9556241988602
 21
-218.6434979093247
  0
LINE
  5
417
100
AcDbEntity
  8
frame_rr9
  6
ByLayer
 62
  256
370
   -1
100
AcDbLine
 10
-328.5539152299531
 20
-219.8838449248934
 11
-315.7939722412675
 21
-219.259168613401
  0
LINE
  5
418
100
AcDbEntity
  8
frame_rr9
  6
ByLayer
 62
  256
370
   -1
100
AcDbLine
 10
-341.2046328085643
 20
-220.5154295664845
 11
-328.5539152299531
 21
-219.8838449248934
  0
LINE
  5
419
100
AcDbEntity
  8
frame_rr9
  6
ByLayer
 62
  256
370
   -1
100
AcDbLine
 10
-353.7153046207487
 20
-221.1518252608567
 11
-341.2046328085646
 21
-220.5154295664845
  0
LINE
  5
41A
100
AcDbEntity
  8
frame_rr9
  6
ByLayer
 62
  256
370
   -1
100
AcDbLine
 10
-366.0551103101533
 20
-221.7909347306923
 11
-353.7153046207486
 21
-221.1518252608567
  0
LINE
  5
41B
100
AcDbEntity
  8
frame_rr9
  6
ByLayer
 62
  256
370
   -1
100
AcDbLine
 10
-378.1932295204259
 20
-222.4306606986738
 11
-366.0551103101533
 21
-221.7909347306923
  0
LINE
  5
41C
100
AcDbEntity
  8
frame_rr9
  6
ByLayer
 62
  256
370
   -1
100
AcDbLine
 10
-390.0988418952138
 20
-223.0689058874839
 11
-378.1932295204259
 21
-222.4306606986738
  0
LINE
  5
41D
100
AcDbEntity
  8
frame_rr9
  6
ByLayer
 62
  256
370
   -1
100
AcDbLine
 10
-401.7411270781644
 20
-223.7035730198047
 11
-390.0988418952138
 21
-223.0689058874839
  0
LINE
  5
41E
100
AcDbEntity
  8
frame_rr9
  6
ByLayer
 62
  256
370
   -1
100
AcDbLine
 10
-413.0892647129248
 20
-224.3325648183188
 11
-401.7411270781644
 21
-223.7035730198047
  0
LINE
  5
41F
100
AcDbEntity
  8
frame_rr9
  6
ByLayer
 62
  256
370
   -1
100
AcDbLine
 10
-424.1124344431427
 20
-224.9537840057087
 11
-413.0892647129248
 21
-224.3325648183188
  0
LINE
  5
420
100
AcDbEntity
  8
frame_rr9
  6
ByLayer
 62
  256
370
   -1
100
AcDbLine
 10
-434.7798159124658
 20
-225.5651333046568
 11
-424.1124344431427
 21
-224.9537840057087
  0
LINE
  5
421
100
AcDbEntity
  8
frame_rr9
  6
ByLayer
 62
  256
370
   -1
100
AcDbLine
 10
-445.0605887645406
 20
-226.1645154378455
 11
-434.7798159124658
 21
-225.5651333046568
  0
LINE
  5
422
100
AcDbEntity
  8
frame_rr9
  6
ByLayer
 62
  256
370
   -1
100
AcDbLine
 10
-454.9239326430151
 20
-226.7498331279572
 11
-445.0605887645406
 21
-226.1645154378455
  0
LINE
  5
423
100
AcDbEntity
  8
frame_rr9
  6
ByLayer
 62
  256
370
   -1
100
AcDbLine
 10
-464.3390271915366
 20
-227.3189890976745
 11
-454.9239326430151
 21
-226.7498331279572
  0
LINE
  5
424
100
AcDbEntity
  8
frame_rr9
  6
ByLayer
 62
  256
370
   -1
100
AcDbLine
 10
290.6606063009576
 20
-204.1755135662475
 11
72.6856031809576
 21
-204.430407226248
  0
LINE
  5
425
100
AcDbEntity
  8
frame_rr9
  6
ByLayer
 62
  256
370
   -1
100
AcDbLine
 10
72.685501470958
 20
-204.424802746248
 11
7.502048730957894
 21
-206.687167536248
  0
LINE
  5
426
100
AcDbEntity
  8
frame_rr9
  6
ByLayer
 62
  256
370
   -1
100
AcDbLine
 10
-29.91692369050871
 20
-207.9858092016195
 11
-12.25842584904204
 21
-207.3720476762476
  0
LINE
  5
427
100
AcDbEntity
  8
frame_rr9
  6
ByLayer
 62
  256
370
   -1
100
AcDbLine
 10
-12.25842584904227
 20
-207.3720476762476
 11
7.501614310957747
 21
-206.6871849662475
  0
LINE
  5
428
100
AcDbEntity
  8
frame_rr9
  6
ByLayer
 62
  256
370
   -1
100
AcDbLine
 10
-63.6503804742127
 20
-209.165216189338
 11
-47.03791293004802
 21
-208.5829962557125
  0
LINE
  5
429
100
AcDbEntity
  8
frame_rr9
  6
ByLayer
 62
  256
370
   -1
100
AcDbLine
 10
-47.03791293004802
 20
-208.5829962557125
 11
-29.91692369050871
 21
-207.9858092016195
  0
LINE
  5
42A
100
AcDbEntity
  8
frame_rr9
  6
ByLayer
 62
  256
370
   -1
100
AcDbLine
 10
-95.46569810263202
 20
-210.2911840984343
 11
-79.78331322955623
 21
-209.7340763533082
  0
LINE
  5
42B
100
AcDbEntity
  8
frame_rr9
  6
ByLayer
 62
  256
370
   -1
100
AcDbLine
 10
-79.78331322955623
 20
-209.7340763533082
 11
-63.6503804742127
 21
-209.165216189338
  0
LINE
  5
42C
100
AcDbEntity
  8
frame_rr9
  6
ByLayer
 62
  256
370
   -1
100
AcDbLine
 10
-125.594771828194
 20
-211.376571735402
 11
-110.7265219999934
 21
-210.8381467755285
  0
LINE
  5
42D
100
AcDbEntity
  8
frame_rr9
  6
ByLayer
 62
  256
370
   -1
100
AcDbLine
 10
-110.7265219999934
 20
-210.8381467755285
 11
-95.46569810263202
 21
-210.2911840984343
  0
LINE
  5
42E
100
AcDbEntity
  8
frame_rr9
  6
ByLayer
 62
  256
370
   -1
100
AcDbLine
 10
-140.0994344937868
 20
-211.9080663288669
 11
-125.594771828194
 21
-211.376571735402
  0
LINE
  5
42F
100
AcDbEntity
  8
frame_rr9
  6
ByLayer
 62
  256
370
   -1
100
AcDbLine
 10
-154.2694969033254
 20
-212.4342379067346
 11
-140.0994344937868
 21
-211.9080663288669
  0
ARC
  5
430
100
AcDbEntity
  8
frame_rr9
  6
ByLayer
 62
  256
370
   -1
100
AcDbCircle
 10
293.0944806109579
 20
-2285.528667306247
 40
2081.35457677
100
AcDbArc
 50
85.225240697
 51
90.06699999999999
  0
LINE
  5
431
100
AcDbEntity
  8
frame_rr9
  6
ByLayer
 62
  256
370
   -1
100
AcDbLine
 10
522.5987788390755
 20
-216.310734983997
 11
519.7875430455196
 21
-216.0514811156518
  0
LINE
  5
432
100
AcDbEntity
  8
frame_rr9
  6
ByLayer
 62
  256
370
   -1
100
AcDbLine
 10
508.5406697673658
 20
-215.0316383796886
 11
505.7285038943063
 21
-214.7806826216218
  0
ARC
  5
433
100
AcDbEntity
  8
frame_rr9
  6
ByLayer
 62
  256
370
   -1
100
AcDbCircle
 10
-179.4177175190419
 20
-7964.648261076247
 40
7780.09708903
100
AcDbArc
 50
84.9938453356
 51
85.23887193660001
  0
ARC
  5
434
100
AcDbEntity
  8
frame_rr9
  6
ByLayer
 62
  256
370
   -1
100
AcDbCircle
 10
-179.4177175190419
 20
-7964.648261076247
 40
7780.09708903
100
AcDbArc
 50
84.9938453356
 51
85.23887193660001
  0
ARC
  5
435
100
AcDbEntity
  8
frame_rr9
  6
ByLayer
 62
  256
370
   -1
100
AcDbCircle
 10
-179.4177175190419
 20
-7964.648261076247
 40
7780.09708903
100
AcDbArc
 50
84.9938453356
 51
85.23887193660001
  0
LINE
  5
436
100
AcDbEntity
  8
frame_rr9
  6
ByLayer
 62
  256
370
   -1
100
AcDbLine
 10
506.318517556609
 20
-239.9326833286908
 11
503.5063516835495
 21
-239.6817275706239
  0
LINE
  5
437
100
AcDbEntity
  8
frame_rr9
  6
ByLayer
 62
  256
370
   -1
100
AcDbLine
 10
506.318517556609
 20
-239.9326833286908
 11
503.5063516835495
 21
-239.6817275706239
  0
LINE
  5
438
100
AcDbEntity
  8
frame_rr9
  6
ByLayer
 62
  256
370
   -1
100
AcDbLine
 10
520.3030053853762
 20
-241.2051002952334
 11
517.4917695918203
 21
-240.9458464268883
  0
LINE
  5
439
100
AcDbEntity
  8
frame_rr9
  6
ByLayer
 62
  256
370
   -1
100
AcDbLine
 10
514.1644784382441
 20
-215.5382405035589
 11
511.3526636135093
 21
-215.284138456439
  0
LINE
  5
43A
100
AcDbEntity
  8
frame_rr9
  6
ByLayer
 62
  256
370
   -1
100
AcDbLine
 10
519.7875430455196
 20
-216.0514811156518
 11
516.9761072470784
 21
-215.7940021727345
  0
LINE
  5
43B
100
AcDbEntity
  8
frame_rr9
  6
ByLayer
 62
  256
370
   -1
100
AcDbLine
 10
516.9761072470784
 20
-215.7940021727345
 11
514.1644784382441
 21
-215.5382405035589
  0
LINE
  5
43C
100
AcDbEntity
  8
frame_rr9
  6
ByLayer
 62
  256
370
   -1
100
AcDbLine
 10
511.3526636135093
 20
-215.284138456439
 11
508.5406697673656
 21
-215.0316383796886
  0
LINE
  5
43D
100
AcDbEntity
  8
frame_rr9
  6
ByLayer
 62
  256
370
   -1
100
AcDbLine
 10
505.7285038943061
 20
-214.7806826216218
 11
502.9161729888225
 21
-214.5312135305524
  0
LINE
  5
43E
100
AcDbEntity
  8
frame_rr9
  6
ByLayer
 62
  256
370
   -1
100
AcDbLine
 10
502.9161729888225
 20
-214.5312135305524
 11
500.1036840454072
 21
-214.2831734547942
  0
LINE
  5
43F
100
AcDbEntity
  8
frame_rr9
  6
ByLayer
 62
  256
370
   -1
100
AcDbLine
 10
550.6985977176333
 20
-219.0135779369155
 11
547.8897466700075
 21
-218.7334039715579
  0
LINE
  5
440
100
AcDbEntity
  8
frame_rr9
  6
ByLayer
 62
  256
370
   -1
100
AcDbLine
 10
545.0806256725734
 20
-218.4555814484888
 11
542.2712417198231
 21
-218.1800527160224
  0
LINE
  5
441
100
AcDbEntity
  8
frame_rr9
  6
ByLayer
 62
  256
370
   -1
100
AcDbLine
 10
542.2712417198226
 20
-218.1800527160224
 11
539.4616018062488
 21
-217.9067601224722
  0
LINE
  5
442
100
AcDbEntity
  8
frame_rr9
  6
ByLayer
 62
  256
370
   -1
100
AcDbLine
 10
536.6517129263433
 20
-217.6356460161526
 11
533.8415820745989
 21
-217.3666527453772
  0
LINE
  5
443
100
AcDbEntity
  8
frame_rr9
  6
ByLayer
 62
  256
370
   -1
100
AcDbLine
 10
533.8415820745989
 20
-217.3666527453772
 11
531.0312162455077
 21
-217.09972265846
  0
LINE
  5
444
100
AcDbEntity
  8
frame_rr9
  6
ByLayer
 62
  256
370
   -1
100
AcDbLine
 10
531.0312162455081
 20
-217.09972265846
 11
528.2206224335622
 21
-216.834798103715
  0
LINE
  5
445
100
AcDbEntity
  8
frame_rr9
  6
ByLayer
 62
  256
370
   -1
100
AcDbLine
 10
525.4098076332534
 20
-216.5718214294559
 11
522.5987788390755
 21
-216.310734983997
  0
LINE
  5
446
100
AcDbEntity
  8
frame_rr9
  6
ByLayer
 62
  256
370
   -1
100
AcDbLine
 10
528.2206224335617
 20
-216.834798103715
 11
525.4098076332534
 21
-216.5718214294559
  0
LINE
  5
447
100
AcDbEntity
  8
frame_rr9
  6
ByLayer
 62
  256
370
   -1
100
AcDbLine
 10
539.4616018062488
 20
-217.9067601224722
 11
536.6517129263433
 21
-217.6356460161526
  0
LINE
  5
448
100
AcDbEntity
  8
frame_rr9
  6
ByLayer
 62
  256
370
   -1
100
AcDbLine
 10
547.889746670007
 20
-218.7334039715579
 11
545.0806256725729
 21
-218.4555814484888
  0
ARC
  5
449
100
AcDbEntity
  8
frame_rr9
  6
ByLayer
 62
  256
370
   -1
100
AcDbCircle
 10
440.1082045164297
 20
-1728.665988628031
 40
1513.631793238693
100
AcDbArc
 50
77.6518185619326
 51
85.7277694103677
  0
LINE
  5
44A
100
AcDbEntity
  8
frame_rr9
  6
ByLayer
 62
  256
370
   -1
100
AcDbLine
 10
553.507171820958
 20
-219.2961609962479
 11
550.6985977176329
 21
-219.0135779369155
  0
ARC
  5
44B
100
AcDbEntity
  8
frame_rr9
  6
ByLayer
 62
  256
370
   -1
100
AcDbCircle
 10
267.4737801209579
 20
-2804.226375366249
 40
2601.95932668
100
AcDbArc
 50
75.6560362076
 51
79.0164391463
  0
LINE
  5
44C
100
AcDbEntity
  8
frame_rr9
  6
ByLayer
 62
  256
370
   -1
100
AcDbLine
 10
951.4281606423423
 20
-293.8839127112958
 11
941.9102345220157
 21
-291.2803495591968
  0
LINE
  5
44D
100
AcDbEntity
  8
frame_rr9
  6
ByLayer
 62
  256
370
   -1
100
AcDbLine
 10
941.9102345220157
 20
-291.2803495591968
 11
933.165943063634
 21
-288.9175678678636
  0
LINE
  5
44E
100
AcDbEntity
  8
frame_rr9
  6
ByLayer
 62
  256
370
   -1
100
AcDbLine
 10
918.2041662690252
 20
-284.9570783466102
 11
912.0896320009579
 21
-283.3807352562478
  0
LINE
  5
44F
100
AcDbEntity
  8
frame_rr9
  6
ByLayer
 62
  256
370
   -1
100
AcDbLine
 10
925.2467618012773
 20
-286.806250007075
 11
918.2041662690252
 21
-284.9570783466102
  0
LINE
  5
450
100
AcDbEntity
  8
frame_rr9
  6
ByLayer
 62
  256
370
   -1
100
AcDbLine
 10
941.9102345220157
 20
-291.2803495591968
 11
933.165943063634
 21
-288.9175678678636
  0
LINE
  5
451
100
AcDbEntity
  8
frame_rr9
  6
ByLayer
 62
  256
370
   -1
100
AcDbLine
 10
933.165943063634
 20
-288.9175678678636
 11
925.2467618012773
 21
-286.806250007075
  0
LINE
  5
452
100
AcDbEntity
  8
frame_rr9
  6
ByLayer
 62
  256
370
   -1
100
AcDbLine
 10
1008.820667480359
 20
-310.1395674410114
 11
996.2067010615038
 21
-306.4923325317689
  0
LINE
  5
453
100
AcDbEntity
  8
frame_rr9
  6
ByLayer
 62
  256
370
   -1
100
AcDbLine
 10
996.2067010615038
 20
-306.4923325317689
 11
984.1089916341949
 21
-303.032467234397
  0
LINE
  5
454
100
AcDbEntity
  8
frame_rr9
  6
ByLayer
 62
  256
370
   -1
100
AcDbLine
 10
984.1089916341949
 20
-303.032467234397
 11
972.5790147325118
 21
-299.7706539186749
  0
LINE
  5
455
100
AcDbEntity
  8
frame_rr9
  6
ByLayer
 62
  256
370
   -1
100
AcDbLine
 10
972.5790147325118
 20
-299.7706539186749
 11
961.6682458905342
 21
-296.7175749543815
  0
LINE
  5
456
100
AcDbEntity
  8
frame_rr9
  6
ByLayer
 62
  256
370
   -1
100
AcDbLine
 10
961.6682458905342
 20
-296.7175749543815
 11
951.4281606423423
 21
-293.8839127112958
  0
LINE
  5
457
100
AcDbEntity
  8
frame_rr9
  6
ByLayer
 62
  256
370
   -1
100
AcDbLine
 10
1021.89941535668
 20
-313.9634895923457
 11
1008.820667480359
 21
-310.1395674410114
  0
LINE
  5
458
100
AcDbEntity
  8
frame_rr9
  6
ByLayer
 62
  256
370
   -1
100
AcDbLine
 10
1035.391469156388
 20
-317.9534166159928
 11
1021.89941535668
 21
-313.9634895923457
  0
LINE
  5
459
100
AcDbEntity
  8
frame_rr9
  6
ByLayer
 62
  256
370
   -1
100
AcDbLine
 10
1063.409592389643
 20
-326.3885558011092
 11
1049.245353345402
 21
-322.0986661421736
  0
LINE
  5
45A
100
AcDbEntity
  8
frame_rr9
  6
ByLayer
 62
  256
370
   -1
100
AcDbLine
 10
1038.72517662607
 20
-542.5062858188375
 11
1024.772239132068
 21
-543.3039974675527
  0
LINE
  5
45B
100
AcDbEntity
  8
frame_rr9
  6
ByLayer
 62
  256
370
   -1
100
AcDbLine
 10
1024.772239132068
 20
-543.3039974675527
 11
1011.048895271404
 21
-544.0749582377589
  0
LINE
  5
45C
100
AcDbEntity
  8
frame_rr9
  6
ByLayer
 62
  256
370
   -1
100
AcDbLine
 10
997.5794579802315
 20
-544.8179039126047
 11
984.3882401947045
 21
-545.5315702752389
  0
LINE
  5
45D
100
AcDbEntity
  8
frame_rr9
  6
ByLayer
 62
  256
370
   -1
100
AcDbLine
 10
1011.048895271404
 20
-544.0749582377589
 11
997.5794579802315
 21
-544.8179039126047
  0
LINE
  5
45E
100
AcDbEntity
  8
frame_rr9
  6
ByLayer
 62
  256
370
   -1
100
AcDbLine
 10
984.3882401947045
 20
-545.5315702752389
 11
971.4995548509759
 21
-546.2146931088104
  0
LINE
  5
45F
100
AcDbEntity
  8
frame_rr9
  6
ByLayer
 62
  256
370
   -1
100
AcDbLine
 10
971.4995548509759
 20
-546.2146931088104
 11
958.9377148851989
 21
-546.8660081964675
  0
LINE
  5
460
100
AcDbEntity
  8
frame_rr9
  6
ByLayer
 62
  256
370
   -1
100
AcDbLine
 10
946.7270332335271
 20
-547.4842513213595
 11
934.8918228321137
 21
-548.0681582666344
  0
LINE
  5
461
100
AcDbEntity
  8
frame_rr9
  6
ByLayer
 62
  256
370
   -1
100
AcDbLine
 10
958.9377148851989
 20
-546.8660081964675
 11
946.7270332335271
 21
-547.4842513213595
  0
LINE
  5
462
100
AcDbEntity
  8
frame_rr9
  6
ByLayer
 62
  256
370
   -1
100
AcDbLine
 10
934.8918228321137
 20
-548.0681582666344
 11
923.4563966171122
 21
-548.6164648154418
  0
LINE
  5
463
100
AcDbEntity
  8
frame_rr9
  6
ByLayer
 62
  256
370
   -1
100
AcDbLine
 10
923.4563966171122
 20
-548.6164648154418
 11
912.4450675246757
 21
-549.1279067509298
  0
LINE
  5
464
100
AcDbEntity
  8
frame_rr9
  6
ByLayer
 62
  256
370
   -1
100
AcDbLine
 10
912.4450675246758
 20
-549.1279067509298
 11
901.882148490958
 21
-549.6012198562474
  0
ARC
  5
465
100
AcDbEntity
  8
frame_rr9
  6
ByLayer
 62
  256
370
   -1
100
AcDbCircle
 10
579.3623142809577
 20
6733.508815393754
 40
7290.2476521
100
AcDbArc
 50
271.5518739659
 51
272.5355871667
  0
ARC
  5
466
100
AcDbEntity
  8
frame_rr9
  6
ByLayer
 62
  256
370
   -1
100
AcDbCircle
 10
-38.72206181724242
 20
94978.02388239253
 40
95535.57388447496
100
AcDbArc
 50
270.3186802294214
 51
270.488820879124
  0
ARC
  5
467
100
AcDbEntity
  8
frame_rr9
  6
ByLayer
 62
  256
370
   -1
100
AcDbCircle
 10
358.1750967709576
 20
-26792.03647567625
 40
26236.30739905
100
AcDbArc
 50
89.7069195367
 51
89.9523123749
  0
LINE
  5
468
100
AcDbEntity
  8
frame_rr9
  6
ByLayer
 62
  256
370
   -1
100
AcDbLine
 10
380.0117322209579
 20
-555.7381639562478
 11
-273.0804594190426
 21
-555.7381639562478
  0
ARC
  5
469
100
AcDbEntity
  8
frame_rr9
  6
ByLayer
 62
  256
370
   -1
100
AcDbCircle
 10
-292.6648753190424
 20
23729.64641614375
 40
24285.39247687
100
AcDbArc
 50
269.6188673498
 51
270.0462049151
  0
ARC
  5
46A
100
AcDbEntity
  8
frame_rr9
  6
ByLayer
 62
  256
370
   -1
100
AcDbCircle
 10
-442.3771687863785
 20
6803.476774934053
 40
7358.695364733715
100
AcDbArc
 50
267.5790518091286
 51
269.908848516313
  0
LINE
  5
46B
100
AcDbEntity
  8
frame_rr9
  6
ByLayer
 62
  256
370
   -1
100
AcDbLine
 10
-801.0455022074073
 20
-546.5770155603691
 11
-777.6127444873384
 21
-547.6267179001949
  0
LINE
  5
46C
100
AcDbEntity
  8
frame_rr9
  6
ByLayer
 62
  256
370
   -1
100
AcDbLine
 10
-777.6127444873384
 20
-547.6267179001949
 11
-753.2076533290422
 21
-548.6509349962477
  0
LINE
  5
46D
100
AcDbEntity
  8
frame_rr9
  6
ByLayer
 62
  256
370
   -1
100
AcDbLine
 10
-1170.605726083621
 20
-502.4384072918782
 11
-1184.665260721442
 21
-499.0398256657916
  0
LINE
  5
46E
100
AcDbEntity
  8
frame_rr9
  6
ByLayer
 62
  256
370
   -1
100
AcDbLine
 10
-1156.282277766456
 20
-505.7715821925152
 11
-1170.605726083621
 21
-502.4384072918782
  0
LINE
  5
46F
100
AcDbEntity
  8
frame_rr9
  6
ByLayer
 62
  256
370
   -1
100
AcDbLine
 10
-1127.040400971669
 20
-512.1472296790971
 11
-1141.744105989341
 21
-509.0157298331167
  0
LINE
  5
470
100
AcDbEntity
  8
frame_rr9
  6
ByLayer
 62
  256
370
   -1
100
AcDbLine
 10
-1112.220352932834
 20
-515.1424611958713
 11
-1127.040400971669
 21
-512.1472296790971
  0
LINE
  5
471
100
AcDbEntity
  8
frame_rr9
  6
ByLayer
 62
  256
370
   -1
100
AcDbLine
 10
-1097.331065891765
 20
-517.9784611077316
 11
-1112.220352932834
 21
-515.1424611958713
  0
LINE
  5
472
100
AcDbEntity
  8
frame_rr9
  6
ByLayer
 62
  256
370
   -1
100
AcDbLine
 10
-1099.437446914758
 20
-517.5856386941321
 11
-1084.828766142187
 21
-520.2128840926156
  0
LINE
  5
473
100
AcDbEntity
  8
frame_rr9
  6
ByLayer
 62
  256
370
   -1
100
AcDbLine
 10
-1084.828766142187
 20
-520.2128840926156
 11
-1070.103928764986
 21
-522.6875004790462
  0
LINE
  5
474
100
AcDbEntity
  8
frame_rr9
  6
ByLayer
 62
  256
370
   -1
100
AcDbLine
 10
-1070.103928764986
 20
-522.6875004790462
 11
-1055.212571440001
 21
-525.0169668986171
  0
LINE
  5
475
100
AcDbEntity
  8
frame_rr9
  6
ByLayer
 62
  256
370
   -1
100
AcDbLine
 10
-1055.212571440001
 20
-525.0169668986171
 11
-1040.104330824081
 21
-527.2087623965208
  0
LINE
  5
476
100
AcDbEntity
  8
frame_rr9
  6
ByLayer
 62
  256
370
   -1
100
AcDbLine
 10
-1040.104330824081
 20
-527.2087623965208
 11
-1024.728843574071
 21
-529.2703660179508
  0
LINE
  5
477
100
AcDbEntity
  8
frame_rr9
  6
ByLayer
 62
  256
370
   -1
100
AcDbLine
 10
-1040.104330824081
 20
-527.2087623965208
 11
-1024.728843574071
 21
-529.2703660179508
  0
LINE
  5
478
100
AcDbEntity
  8
frame_rr9
  6
ByLayer
 62
  256
370
   -1
100
AcDbLine
 10
-1024.728843574071
 20
-529.2703660179508
 11
-1009.03574634682
 21
-531.2092568080996
  0
LINE
  5
479
100
AcDbEntity
  8
frame_rr9
  6
ByLayer
 62
  256
370
   -1
100
AcDbLine
 10
-1009.03574634682
 20
-531.2092568080996
 11
-992.9746757991743
 21
-533.0329138121604
  0
LINE
  5
47A
100
AcDbEntity
  8
frame_rr9
  6
ByLayer
 62
  256
370
   -1
100
AcDbLine
 10
-1009.03574634682
 20
-531.2092568080996
 11
-992.9746757991743
 21
-533.0329138121604
  0
LINE
  5
47B
100
AcDbEntity
  8
frame_rr9
  6
ByLayer
 62
  256
370
   -1
100
AcDbLine
 10
-976.4952685879812
 20
-534.7488160753259
 11
-959.5471613700881
 21
-536.3644426427893
  0
LINE
  5
47C
100
AcDbEntity
  8
frame_rr9
  6
ByLayer
 62
  256
370
   -1
100
AcDbLine
 10
-976.4952685879812
 20
-534.7488160753259
 11
-959.5471613700881
 21
-536.3644426427893
  0
LINE
  5
47D
100
AcDbEntity
  8
frame_rr9
  6
ByLayer
 62
  256
370
   -1
100
AcDbLine
 10
-959.5471613700881
 20
-536.3644426427893
 11
-942.0799908023421
 21
-537.8872725597435
  0
LINE
  5
47E
100
AcDbEntity
  8
frame_rr9
  6
ByLayer
 62
  256
370
   -1
100
AcDbLine
 10
-942.0799908023421
 20
-537.8872725597435
 11
-924.0433935415906
 21
-539.3247848713811
  0
LINE
  5
47F
100
AcDbEntity
  8
frame_rr9
  6
ByLayer
 62
  256
370
   -1
100
AcDbLine
 10
-942.0799908023421
 20
-537.8872725597435
 11
-924.0433935415906
 21
-539.3247848713811
  0
LINE
  5
480
100
AcDbEntity
  8
frame_rr9
  6
ByLayer
 62
  256
370
   -1
100
AcDbLine
 10
-924.0433935415906
 20
-539.3247848713811
 11
-905.3870062446806
 21
-540.6844586228955
  0
LINE
  5
481
100
AcDbEntity
  8
frame_rr9
  6
ByLayer
 62
  256
370
   -1
100
AcDbLine
 10
-924.0433935415906
 20
-539.3247848713811
 11
-905.3870062446806
 21
-540.6844586228955
  0
LINE
  5
482
100
AcDbEntity
  8
frame_rr9
  6
ByLayer
 62
  256
370
   -1
100
AcDbLine
 10
-905.3870062446806
 20
-540.6844586228955
 11
-886.0604655684594
 21
-541.9737728594794
  0
LINE
  5
483
100
AcDbEntity
  8
frame_rr9
  6
ByLayer
 62
  256
370
   -1
100
AcDbLine
 10
-886.0604655684594
 20
-541.9737728594794
 11
-866.013408169774
 21
-543.2002066263257
  0
LINE
  5
484
100
AcDbEntity
  8
frame_rr9
  6
ByLayer
 62
  256
370
   -1
100
AcDbLine
 10
-886.0604655684594
 20
-541.9737728594794
 11
-866.013408169774
 21
-543.2002066263257
  0
LINE
  5
485
100
AcDbEntity
  8
frame_rr9
  6
ByLayer
 62
  256
370
   -1
100
AcDbLine
 10
-866.013408169774
 20
-543.2002066263257
 11
-845.1954707054722
 21
-544.3712389686275
  0
LINE
  5
486
100
AcDbEntity
  8
frame_rr9
  6
ByLayer
 62
  256
370
   -1
100
AcDbLine
 10
-845.1954707054722
 20
-544.3712389686275
 11
-823.5562898324008
 21
-545.4943489315775
  0
LINE
  5
487
100
AcDbEntity
  8
frame_rr9
  6
ByLayer
 62
  256
370
   -1
100
AcDbLine
 10
-823.5562898324008
 20
-545.4943489315775
 11
-801.0455022074073
 21
-546.5770155603691
  0
LINE
  5
488
100
AcDbEntity
  8
frame_rr9
  6
ByLayer
 62
  256
370
   -1
100
AcDbLine
 10
-992.9746757991743
 20
-533.0329138121604
 11
-976.4952685879812
 21
-534.7488160753259
  0
LINE
  5
489
100
AcDbEntity
  8
frame_rr9
  6
ByLayer
 62
  256
370
   -1
100
AcDbLine
 10
-1141.744105989341
 20
-509.0157298331167
 11
-1156.282277766456
 21
-505.7715821925152
  0
LINE
  5
48A
100
AcDbEntity
  8
frame_rr9
  6
ByLayer
 62
  256
370
   -1
100
AcDbLine
 10
-1184.665260721442
 20
-499.0398256657916
 11
-1198.411691460524
 21
-495.5994578488403
  0
LINE
  5
48B
100
AcDbEntity
  8
frame_rr9
  6
ByLayer
 62
  256
370
   -1
100
AcDbLine
 10
-1211.795828081472
 20
-492.1409243756107
 11
-1224.768480364895
 21
-488.6878457806876
  0
LINE
  5
48C
100
AcDbEntity
  8
frame_rr9
  6
ByLayer
 62
  256
370
   -1
100
AcDbLine
 10
-1198.411691460523
 20
-495.5994578488404
 11
-1211.795828081472
 21
-492.1409243756107
  0
LINE
  5
48D
100
AcDbEntity
  8
frame_rr9
  6
ByLayer
 62
  256
370
   -1
100
AcDbLine
 10
-1224.768480364895
 20
-488.6878457806876
 11
-1227.077814189497
 21
-488.0558780345285
  0
LINE
  5
48E
100
AcDbEntity
  8
frame_rr9
  6
ByLayer
 62
  256
370
   -1
100
AcDbLine
 10
-1227.077814189497
 20
-457.5181221326154
 11
-1227.077814189497
 21
-488.0558780345285
  0
LINE
  5
48F
100
AcDbEntity
  8
frame_rr9
  6
ByLayer
 62
  256
370
   -1
100
AcDbLine
 10
-1202.077814189497
 20
-457.5181221326154
 11
-1202.077814189497
 21
-494.6521118575214
  0
LINE
  5
490
100
AcDbEntity
  8
frame_rr9
  6
ByLayer
 62
  256
370
   -1
100
AcDbLine
 10
-1202.077814189497
 20
-457.5181221326154
 11
-1202.077814189497
 21
-369.5232133785314
  0
LINE
  5
491
100
AcDbEntity
  8
frame_rr9
  6
ByLayer
 62
  256
370
   -1
100
AcDbLine
 10
-1226.932509486938
 20
-413.7766429067763
 11
-1227.077814189497
 21
-413.8432938359692
  0
LINE
  5
492
100
AcDbEntity
  8
frame_rr9
  6
ByLayer
 62
  256
370
   -1
100
AcDbLine
 10
-1226.87955370567
 20
-384.2286923771916
 11
-1227.077814189497
 21
-384.4565676016239
  0
LINE
  5
493
100
AcDbEntity
  8
frame_rr9
  6
ByLayer
 62
  256
370
   -1
100
AcDbLine
 10
-1227.077814189497
 20
-457.5181221326154
 11
-1227.077814189497
 21
-384.4565676016239
  0
LINE
  5
494
100
AcDbEntity
  8
frame_rr9
  6
ByLayer
 62
  256
370
   -1
100
AcDbLine
 10
1039.689034900958
 20
-505.1817957862479
 11
1039.689034900958
 21
-542.4502444093456
  0
LINE
  5
495
100
AcDbEntity
  8
frame_rr9
  6
ByLayer
 62
  256
370
   -1
100
AcDbLine
 10
1039.689034900958
 20
-517.4080227619936
 11
1037.274057615633
 21
-517.5484362797135
  0
LINE
  5
496
100
AcDbEntity
  8
frame_rr9
  6
ByLayer
 62
  256
370
   -1
100
AcDbLine
 10
1052.883394817258
 20
-541.6830875084644
 11
1039.689034900958
 21
-542.4502444093456
  0
LINE
  5
497
100
AcDbEntity
  8
frame_rr9
  6
ByLayer
 62
  256
370
   -1
100
AcDbLine
 10
1039.689034900958
 20
-542.4502444093456
 11
1038.72517662607
 21
-542.5062858188375
  0
LINE
  5
498
100
AcDbEntity
  8
frame_rr9
  6
ByLayer
 62
  256
370
   -1
100
AcDbLine
 10
1039.689034900958
 20
-345.3344131338117
 11
1028.225087024948
 21
-341.9042614266919
  0
LINE
  5
499
100
AcDbEntity
  8
frame_rr9
  6
ByLayer
 62
  256
370
   -1
100
AcDbLine
 10
1049.245353345402
 20
-322.0986661421736
 11
1039.689034900958
 21
-319.2393002081579
  0
LINE
  5
49A
100
AcDbEntity
  8
frame_rr9
  6
ByLayer
 62
  256
370
   -1
100
AcDbLine
 10
1039.689034900958
 20
-319.2393002081579
 11
1035.391469156388
 21
-317.9534166159928
  0
LINE
  5
49B
100
AcDbEntity
  8
frame_rr9
  6
ByLayer
 62
  256
370
   -1
100
AcDbLine
 10
1039.689034900958
 20
-505.1817957862479
 11
1039.689034900958
 21
-319.2393002081579
  0
LINE
  5
49C
100
AcDbEntity
  8
frame_rr9
  6
ByLayer
 62
  256
370
   -1
100
AcDbLine
 10
1064.689034900958
 20
-540.985394873161
 11
1052.883394817258
 21
-541.6830875084644
  0
LINE
  5
49D
100
AcDbEntity
  8
frame_rr9
  6
ByLayer
 62
  256
370
   -1
100
AcDbLine
 10
1064.689034900958
 20
-505.1817957862479
 11
1064.689034900958
 21
-326.824799733844
  0
LINE
  5
49E
100
AcDbEntity
  8
frame_rr9
  6
ByLayer
 62
  256
370
   -1
100
AcDbLine
 10
1063.409592389643
 20
-326.3885558011092
 11
1064.689034900958
 21
-326.824799733844
  0
LINE
  5
49F
100
AcDbEntity
  8
frame_rr9
  6
ByLayer
 62
  256
370
   -1
100
AcDbLine
 10
1064.689034900958
 20
-505.1817957862479
 11
1064.689034900958
 21
-540.985394873161
  0
LINE
  5
4A0
100
AcDbEntity
  8
frame_rr9
  6
ByLayer
 62
  256
370
   -1
100
AcDbLine
 10
-587.0778141894968
 20
-457.5181221326155
 11
-587.0778141894968
 21
-369.5232133785315
  0
LINE
  5
4A1
100
AcDbEntity
  8
frame_rr9
  6
ByLayer
 62
  256
370
   -1
100
AcDbLine
 10
-612.0778141894968
 20
-457.5181221326155
 11
-612.0778141894968
 21
-384.4565676016241
  0
LINE
  5
4A2
100
AcDbEntity
  8
frame_rr9
  6
ByLayer
 62
  256
370
   -1
100
AcDbLine
 10
-612.0778141894968
 20
-384.4565676016241
 11
-612.0778141894968
 21
-262.5842172600381
  0
LINE
  5
4A3
100
AcDbEntity
  8
frame_rr9
  6
ByLayer
 62
  256
370
   -1
100
AcDbLine
 10
-587.0778141894968
 20
-369.5232133785315
 11
-587.0778141894968
 21
-260.4046065901268
  0
LINE
  5
4A4
100
AcDbEntity
  8
frame_rr9
  6
ByLayer
 62
  256
370
   -1
100
AcDbLine
 10
-587.0778141894968
 20
-457.5181221326155
 11
-587.0778141894968
 21
-528.7909115280784
  0
LINE
  5
4A5
100
AcDbEntity
  8
frame_rr9
  6
ByLayer
 62
  256
370
   -1
100
AcDbLine
 10
-612.0778141894968
 20
-457.5181221326155
 11
-612.0778141894968
 21
-528.2549027575528
  0
CIRCLE
  5
4A6
100
AcDbEntity
  8
frame_rr9
  6
ByLayer
 62
  256
370
   -1
100
AcDbCircle
 10
1052.189034900958
 20
-336.0796064338279
 40
12.5
  0
CIRCLE
  5
4A7
100
AcDbEntity
  8
frame_rr9
  6
ByLayer
 62
  256
370
   -1
100
AcDbCircle
 10
653.005944408425
 20
-542.5441472415085
 40
12.5
  0
CIRCLE
  5
4A8
100
AcDbEntity
  8
frame_rr9
  6
ByLayer
 62
  256
370
   -1
100
AcDbCircle
 10
1052.189034900958
 20
-529.1967088175774
 40
12.5
  0
CIRCLE
  5
4A9
100
AcDbEntity
  8
frame_rr9
  6
ByLayer
 62
  256
370
   -1
100
AcDbCircle
 10
-1214.577814189497
 20
-391.4578715246587
 40
12.5
  0
CIRCLE
  5
4AA
100
AcDbEntity
  8
frame_rr9
  6
ByLayer
 62
  256
370
   -1
100
AcDbCircle
 10
-1214.577814189497
 20
-478.4434048030194
 40
12.5
  0
LINE
  5
4AB
100
AcDbEntity
  8
frame_rr9
  6
ByLayer
 62
  256
370
   -1
100
AcDbLine
 10
92.42494060095791
 20
-394.0279642162481
 11
67.42494060095791
 21
-394.0279642162481
  0
LINE
  5
4AC
100
AcDbEntity
  8
frame_rr9
  6
ByLayer
 62
  256
370
   -1
100
AcDbLine
 10
92.42494060095791
 20
-419.0279642162481
 11
67.42494060095791
 21
-419.0279642162481
  0
LINE
  5
4AD
100
AcDbEntity
  8
frame_rr9
  6
ByLayer
 62
  256
370
   -1
100
AcDbLine
 10
67.42494060095791
 20
-419.0279642162481
 11
-82.57505939904203
 21
-419.0279642162481
  0
LINE
  5
4AE
100
AcDbEntity
  8
frame_rr9
  6
ByLayer
 62
  256
370
   -1
100
AcDbLine
 10
67.42494060095791
 20
-394.0279642162481
 11
-82.57505939904203
 21
-394.0279642162481
  0
CIRCLE
  5
4AF
100
AcDbEntity
  8
frame_rr9
  6
ByLayer
 62
  256
370
   -1
100
AcDbCircle
 10
764.3829869987118
 20
-124.3738427226917
 40
12.5
  0
CIRCLE
  5
4B0
100
AcDbEntity
  8
frame_rr9
  6
ByLayer
 62
  256
370
   -1
100
AcDbCircle
 10
761.6134318479715
 20
-262.2495843966758
 40
12.5
  0
LINE
  5
4B1
100
AcDbEntity
  8
frame_rr9
  6
ByLayer
 62
  256
370
   -1
100
AcDbLine
 10
793.0050200456162
 20
77.30715752459975
 11
663.2693560120832
 21
-554.970865418377
  0
LINE
  5
4B2
100
AcDbEntity
  8
frame_rr9
  6
ByLayer
 62
  256
370
   -1
100
AcDbLine
 10
818.525869196661
 20
77.30715752459975
 11
688.8294450640647
 21
-554.7796263541644
  0
LINE
  5
4B3
100
AcDbEntity
  8
frame_rr9
  6
ByLayer
 62
  256
370
   -1
100
AcDbLine
 10
756.97620647705
 20
-134.4430831262144
 11
1044.782254379297
 21
-346.1488468373505
  0
LINE
  5
4B4
100
AcDbEntity
  8
frame_rr9
  6
ByLayer
 62
  256
370
   -1
100
AcDbLine
 10
1059.59581542262
 20
-326.0103660303052
 11
771.7897675203735
 21
-114.3046023191691
  0
LINE
  5
4B5
100
AcDbEntity
  8
frame_rr9
  6
ByLayer
 62
  256
370
   -1
100
AcDbLine
 10
793.0050200456162
 20
77.30715752459975
 11
818.525869196661
 21
77.30715752459975
  0
LINE
  5
4B6
100
AcDbEntity
  8
frame_rr9
  6
ByLayer
 62
  256
370
   -1
100
AcDbLine
 10
-422.077814189497
 20
-530.4008926110962
 11
-422.077814189497
 21
-249.8787896052495
  0
LINE
  5
4B7
100
AcDbEntity
  8
frame_rr9
  6
ByLayer
 62
  256
370
   -1
100
AcDbLine
 10
-447.077814189497
 20
-530.2170833238433
 11
-447.077814189497
 21
-251.3282038882152
  0
CIRCLE
  5
4B8
100
AcDbEntity
  8
frame_rr9
  6
ByLayer
 62
  256
370
   -1
100
AcDbCircle
 10
-434.4808090013329
 20
-492.7482513548701
 40
12.5
  0
CIRCLE
  5
4B9
100
AcDbEntity
  8
frame_rr9
  6
ByLayer
 62
  256
370
   -1
100
AcDbCircle
 10
-726.8702692511704
 20
-262.5732788928044
 40
12.5
  0
CIRCLE
  5
4BA
100
AcDbEntity
  8
frame_rr9
  6
ByLayer
 62
  256
370
   -1
100
AcDbCircle
 10
-398.0890595214709
 20
-236.0704910214649
 40
12.5
  0
LINE
  5
4BB
100
AcDbEntity
  8
frame_rr9
  6
ByLayer
 62
  256
370
   -1
100
AcDbLine
 10
597.9221858105032
 20
-530.4281406808582
 11
597.9221858105032
 21
-248.4229804874215
  0
LINE
  5
4BC
100
AcDbEntity
  8
frame_rr9
  6
ByLayer
 62
  256
370
   -1
100
AcDbLine
 10
572.9221858105032
 20
-530.5915146285499
 11
572.9221858105032
 21
-245.9707865673161
  0
LINE
  5
4BD
100
AcDbEntity
  8
frame_rr9
  6
ByLayer
 62
  256
370
   -1
100
AcDbLine
 10
572.9221858105032
 20
-394.0279642162481
 11
92.42494060095791
 21
-394.0279642162481
  0
LINE
  5
4BE
100
AcDbEntity
  8
frame_rr9
  6
ByLayer
 62
  256
370
   -1
100
AcDbLine
 10
572.9221858105032
 20
-419.0279642162481
 11
92.42494060095791
 21
-419.0279642162481
  0
CIRCLE
  5
4BF
100
AcDbEntity
  8
frame_rr9
  6
ByLayer
 62
  256
370
   -1
100
AcDbCircle
 10
585.4221911770649
 20
-343.0066341546635
 40
12.5
  0
CIRCLE
  5
4C0
100
AcDbEntity
  8
frame_rr9
  6
ByLayer
 62
  256
370
   -1
100
AcDbCircle
 10
680.9221858209578
 20
-417.0538013062477
 40
12.5
  0
CIRCLE
  5
4C1
100
AcDbEntity
  8
frame_rr9
  6
ByLayer
 62
  256
370
   -1
100
AcDbCircle
 10
379.7021185174058
 20
-543.0929501047434
 40
12.5
  0
CIRCLE
  5
4C2
100
AcDbEntity
  8
frame_rr9
  6
ByLayer
 62
  256
370
   -1
100
AcDbCircle
 10
-391.9485871012743
 20
-543.043009127047
 40
12.5
  0
CIRCLE
  5
4C3
100
AcDbEntity
  8
frame_rr9
  6
ByLayer
 62
  256
370
   -1
100
AcDbCircle
 10
-704.5778141894968
 20
-538.0264322618184
 40
12.5
  0
LINE
  5
4C4
100
AcDbEntity
  8
frame_rr9
  6
ByLayer
 62
  256
370
   -1
100
AcDbLine
 10
-182.0778141894969
 20
-530.7381639562477
 11
-182.0778141894969
 21
-238.5098905526909
  0
LINE
  5
4C5
100
AcDbEntity
  8
frame_rr9
  6
ByLayer
 62
  256
370
   -1
100
AcDbLine
 10
-207.0778141894969
 20
-530.7381639562477
 11
-207.0778141894969
 21
-239.4936391849747
  0
LINE
  5
4C6
100
AcDbEntity
  8
frame_rr9
  6
ByLayer
 62
  256
370
   -1
100
AcDbLine
 10
-82.57505939904203
 20
-394.0279642162481
 11
-182.0778141894969
 21
-394.0279642162481
  0
LINE
  5
4C7
100
AcDbEntity
  8
frame_rr9
  6
ByLayer
 62
  256
370
   -1
100
AcDbLine
 10
-82.57505939904203
 20
-419.0279642162481
 11
-182.0778141894969
 21
-419.0279642162481
  0
CIRCLE
  5
4C8
100
AcDbEntity
  8
frame
  6
ByLayer
 62
  256
370
   -1
100
AcDbCircle
 10
-732.1999504231146
 20
-249.6778937069072
 40
12.5
  0
CIRCLE
  5
4C9
100
AcDbEntity
  8
frame
  6
ByLayer
 62
  256
370
   -1
100
AcDbCircle
 10
1051.476903699282
 20
-519.9518569223386
 40
12.7
  0
CIRCLE
  5
4CA
100
AcDbEntity
  8
frame
  6
ByLayer
 62
  256
370
   -1
100
AcDbCircle
 10
-1132.304061643848
 20
-359.1644781641463
 40
12.7
  0
CIRCLE
  5
4CB
100
AcDbEntity
  8
frame
  6
ByLayer
 62
  256
370
   -1
100
AcDbCircle
 10
-1132.519533396779
 20
-512.9305078483699
 40
12.7
  0
LINE
  5
4CC
100
AcDbEntity
  8
frame
  6
ByLayer
 62
  256
370
   -1
100
AcDbLine
 10
-587.0413419257752
 20
-243.2300086067157
 11
-587.0413419257753
 21
-521.685244845063
  0
LINE
  5
4CD
100
AcDbEntity
  8
frame
  6
ByLayer
 62
  256
370
   -1
100
AcDbLine
 10
-612.0413419257754
 20
-520.9391188590107
 11
-612.0413419257756
 21
-245.6534150923862
  0
LINE
  5
4CE
100
AcDbEntity
  8
frame
  6
ByLayer
 62
  256
370
   -1
100
AcDbLine
 10
-447.0184107222755
 20
-525.4941536243051
 11
-447.0184107222755
 21
-236.2888951302117
  0
LINE
  5
4CF
100
AcDbEntity
  8
frame
  6
ByLayer
 62
  256
370
   -1
100
AcDbLine
 10
-422.0467119172794
 20
-526.0764998630566
 11
-422.0467119172794
 21
-235.6204237766566
  0
CIRCLE
  5
4D0
100
AcDbEntity
  8
frame
  6
ByLayer
 62
  256
370
   -1
100
AcDbCircle
 10
-434.0998303645581
 20
-493.4387310736252
 40
12.7
  0
SPLINE
  5
4D1
100
AcDbEntity
  8
frame
  6
ByLayer
 62
  256
370
   -1
100
AcDbSpline
210
0
220
0
230
0
 70
    8
 71
    2
 72
   12
 73
    9
 74
    0
 42
1e-07
 43
1e-07
 40
0
 40
0
 40
0
 40
0.1428571428571428
 40
0.2857142857142857
 40
0.4285714285714285
 40
0.5714285714285714
 40
0.7142857142857143
 40
0.8571428571428571
 40
1
 40
1
 40
1
 10
1038.956816493001
 20
-372.3476565437732
 30
0
 10
854.3241622962087
 20
-316.4544100868698
 30
0
 10
669.896997976101
 20
-281.5211310513063
 30
0
 10
565.8461067744463
 20
-266.4059588039793
 30
0
 10
356.6783277491296
 20
-249.7837989361872
 30
0
 10
120.4868900154446
 20
-234.7052258953622
 30
0
 10
-192.3174704747613
 20
-228.7593818754546
 30
0
 10
-792.4215516706909
 20
-246.3940535422325
 30
0
 10
-1138.183473364069
 20
-374.67875146147
 30
0
  0
SPLINE
  5
4D2
100
AcDbEntity
  8
frame
  6
ByLayer
 62
  256
370
   -1
100
AcDbSpline
210
0
220
0
230
0
 70
    8
 71
    2
 72
   12
 73
    9
 74
    0
 42
1e-07
 43
1e-07
 40
0
 40
0
 40
0
 40
0.1428571428571428
 40
0.2857142857142857
 40
0.4285714285714285
 40
0.5714285714285714
 40
0.7142857142857143
 40
0.8571428571428571
 40
1
 40
1
 40
1
 10
1038.956816493001
 20
-346.8669118354796
 30
0
 10
849.7006400709134
 20
-290.2544508101972
 30
0
 10
683.2538399602871
 20
-259.9446939999288
 30
0
 10
568.1025900479417
 20
-241.502209666106
 30
0
 10
358.4123649459705
 20
-224.8430247520303
 30
0
 10
121.4964929151551
 20
-209.721480673032
 30
0
 10
-192.848049070573
 20
-203.7344414973625
 30
0
 10
-797.8394529232401
 20
-221.7947875574093
 30
0
 10
-1146.876431842846
 20
-351.238775504011
 30
0
  0
LINE
  5
4D3
100
AcDbEntity
  8
frame
  6
ByLayer
 62
  256
370
   -1
100
AcDbLine
 10
1038.977858656374
 20
-346.6401825251466
 11
1038.958333479385
 21
-533.1741585618106
  0
CIRCLE
  5
4D4
100
AcDbEntity
  8
frame
  6
ByLayer
 62
  256
370
   -1
100
AcDbCircle
 10
1051.39441841893
 20
-363.0699036860124
 40
12.7
  0
LINE
  5
4D5
100
AcDbEntity
  8
frame
  6
ByLayer
 62
  256
370
   -1
100
AcDbLine
 10
1063.56857245944
 20
-353.4814106806547
 11
1063.95833320966
 21
-532.3887997497316
  0
LINE
  5
4D6
100
AcDbEntity
  8
frame
  6
ByLayer
 62
  256
370
   -1
100
AcDbLine
 10
1038.977858656374
 20
-346.6401825251466
 11
1063.56857245944
 21
-353.4814106806547
  0
INSERT
  5
4D7
100
AcDbEntity
  8
internals
  6
ByLayer
 62
  256
370
   -1
100
AcDbBlockReference
  2
batteryS
 10
-351.2592579495122
 20
-359.6072841896284
 30
0
 41
1
 42
1
 43
0
 50
0
 70
    1
 71
    1
 44
1
 45
1
  0
LINE
  5
4D8
100
AcDbEntity
  8
Construct
  6
ByLayer
 62
  256
370
   -1
100
AcDbLine
 10
-351.2592579495121
 20
-561.2442256816701
 11
-351.2592579495119
 21
1438.75577431833
  0
INSERT
  5
4D9
100
AcDbEntity
  8
internals
  6
ByLayer
 62
  256
370
   -1
100
AcDbBlockReference
  2
batteryT
 10
-350
 20
430
 30
0
 41
1
 42
1
 43
0
 50
0
 70
    1
 71
    1
 44
1
 45
1
  0
INSERT
  5
4DA
100
AcDbEntity
  8
internals
  6
ByLayer
 62
  256
370
   -1
100
AcDbBlockReference
  2
batteryS
 10
-1000
 20
-340
 30
0
 41
1
 42
1
 43
0
 50
0
 70
    1
 71
    1
 44
1
 45
1
  0
LINE
  5
4DB
100
AcDbEntity
  8
Construct
  6
ByLayer
 62
  256
370
   -1
100
AcDbLine
 10
-1000
 20
-600
 11
-999.9999999999999
 21
1400
  0
INSERT
  5
4DC
100
AcDbEntity
  8
Construct
  6
ByLayer
 62
  256
370
   -1
100
AcDbBlockReference
  2
batteryT
 10
-1000
 20
450
 30
0
 41
1
 42
1
 43
0
 50
0
 70
    1
 71
    1
 44
1
 45
1
  0
INSERT
  5
4DD
100
AcDbEntity
  8
Construct
  6
ByLayer
 62
  256
370
   -1
100
AcDbBlockReference
  2
batteryT
 10
-1000
 20
880
 30
0
 41
1
 42
1
 43
0
 50
0
 70
    1
 71
    1
 44
1
 45
1
  0
LINE
  5
4DE
100
AcDbEntity
  8
Construct
  6
ByLayer
 62
  256
370
   -1
100
AcDbLine
 10
-581.4715438186
 20
-403.5042445866
 11
-581.4715438185999
 21
1596.4957554134
  0
LINE
  5
4DF
100
AcDbEntity
  8
Construct
  6
ByLayer
 62
  256
370
   -1
100
AcDbLine
 10
12.84894251496576
 20
-599.131421694516
 11
12.84894251496576
 21
-598.131421694516
  0
LINE
  5
4E0
100
AcDbEntity
  8
Construct
  6
ByLayer
 62
  256
370
   -1
100
AcDbLine
 10
12.84894251496416
 20
-599.6130385929858
 11
12.84894251496429
 21
1400.386961407014
  0
LWPOLYLINE
  5
4E1
100
AcDbEntity
  8
internals
  6
ByLayer
 62
  256
370
   -1
100
AcDbPolyline
 90
    4
 70
    1
 43
0
 10
-720
 20
610
 10
-150
 20
610
 10
-150
 20
590
 10
-720
 20
590
  0
INSERT
  5
4E2
100
AcDbEntity
  8
Driver
  6
ByLayer
 62
  256
370
   -1
100
AcDbBlockReference
  2
Driver
 10
210.4942633736861
 20
-382.142314458262
 30
0
 41
1
 42
1
 43
0
 50
0
 70
    1
 71
    1
 44
0
 45
0
  0
LINE
  5
4E3
100
AcDbEntity
  8
frame
  6
ByLayer
 62
  256
370
   -1
100
AcDbLine
 10
639.5699127366286
 20
-533.0150173221231
 11
745.3440017030273
 21
48.29012101972656
  0
LINE
  5
4E4
100
AcDbEntity
  8
frame
  6
ByLayer
 62
  256
370
   -1
100
AcDbLine
 10
664.1634008662776
 20
-537.5050442281462
 11
769.9376270356479
 21
43.80084568859839
  0
LINE
  5
4E5
100
AcDbEntity
  8
frame
  6
ByLayer
 62
  256
370
   -1
100
AcDbLine
 10
745.3440017030273
 20
48.29012101972656
 11
769.9376270356479
 21
43.80084568859839
  0
LINE
  5
4E6
100
AcDbEntity
  8
frame
  6
ByLayer
 62
  256
370
   -1
100
AcDbLine
 10
664.0316575011684
 20
825.0150724262245
 11
664.0316575011684
 21
374.9904663676241
  0
LINE
  5
4E7
100
AcDbEntity
  8
frame
  6
ByLayer
 62
  256
370
   -1
100
AcDbLine
 10
639.0316575011684
 20
825.0150724262245
 11
639.0316575011684
 21
374.9904663676241
  0
LINE
  5
4E8
100
AcDbEntity
  8
frame
  6
ByLayer
 62
  256
370
   -1
100
AcDbLine
 10
713.3894023170092
 20
825.0150724262245
 11
713.3894023170092
 21
374.9904663676241
  0
LINE
  5
4E9
100
AcDbEntity
  8
frame
  6
ByLayer
 62
  256
370
   -1
100
AcDbLine
 10
738.3894023170093
 20
374.9905904497385
 11
738.3894023170093
 21
825.015196499541
  0
LINE
  5
4EA
100
AcDbEntity
  8
frame
  6
ByLayer
 62
  256
370
   -1
100
AcDbLine
 10
587.7538152776344
 20
825.0150724262245
 11
587.7538152776344
 21
374.9904663676241
  0
LINE
  5
4EB
100
AcDbEntity
  8
frame
  6
ByLayer
 62
  256
370
   -1
100
AcDbLine
 10
562.7538152776344
 20
825.0150724262245
 11
562.7538152776344
 21
374.9904663676241
  0
LINE
  5
4EC
100
AcDbEntity
  8
Construct
  6
ByLayer
 62
  256
370
   -1
100
AcDbLine
 10
600
 20
-600
 11
600.0000000000001
 21
1400
  0
CIRCLE
  5
4ED
100
AcDbEntity
  8
frame
  6
ByLayer
 62
  256
370
   -1
100
AcDbCircle
 10
575.1973587960439
 20
-330.3310306635298
 40
12.7
  0
INSERT
  5
4EE
100
AcDbEntity
  8
internals
  6
ByLayer
 62
  256
370
   -1
100
AcDbBlockReference
  2
MotorS
 10
820
 20
-430
 30
0
 41
1
 42
1
 43
0
 50
0
 70
    1
 71
    1
 44
0
 45
0
  0
LINE
  5
4EF
100
AcDbEntity
  8
frame
  6
ByLayer
 62
  256
370
   -1
100
AcDbLine
 10
-94.9999999999998
 20
-230.8956276171015
 11
-94.99999999999972
 21
-530.1186914098993
  0
LINE
  5
4F0
100
AcDbEntity
  8
frame
  6
ByLayer
 62
  256
370
   -1
100
AcDbLine
 10
-120
 20
-530
 11
-119.9999999999999
 21
-230.9281730772284
  0
LINE
  5
4F1
100
AcDbEntity
  8
frame
  6
ByLayer
 62
  256
370
   -1
100
AcDbLine
 10
-94.99999999999976
 20
-368.0954672395761
 11
562.7273028653999
 21
-368.0954672395762
  0
LINE
  5
4F2
100
AcDbEntity
  8
frame_rr9
  6
ByLayer
 62
  256
370
   -1
100
AcDbLine
 10
-383.6726275539734
 20
424.0669229906987
 11
-383.6726275539734
 21
776.4454488006972
  0
LINE
  5
4F3
100
AcDbEntity
  8
frame_rr9
  6
ByLayer
 62
  256
370
   -1
100
AcDbLine
 10
-408.6726275539734
 20
424.0669229906987
 11
-408.6726275539734
 21
776.4454488006972
  0
LINE
  5
4F4
100
AcDbEntity
  8
Construct
  6
ByLayer
 62
  256
370
   -1
100
AcDbLine
 10
-408.6388126844573
 20
-562.2466053001391
 11
-408.6388126844572
 21
1437.753394699861
  0
CIRCLE
  5
4F5
100
AcDbEntity
  8
frame
  6
ByLayer
 62
  256
370
   -1
100
AcDbCircle
 10
-396.6447795624129
 20
-539.1103258293449
 40
12.5
  0
LINE
  5
4F6
100
AcDbEntity
  8
frame
  6
ByLayer
 62
  256
370
   -1
100
AcDbLine
 10
-408.6640608132295
 20
775.0116879711431
 11
-408.6640608132295
 21
424.9870816611879
  0
LINE
  5
4F7
100
AcDbEntity
  8
frame
  6
ByLayer
 62
  256
370
   -1
100
AcDbLine
 10
-200.5581196394842
 20
849.9973800506762
 11
3.090521190599997
 21
850.0116879653
  0
LINE
  5
4F8
100
AcDbEntity
  8
frame
  6
ByLayer
 62
  256
370
   -1
100
AcDbLine
 10
3.090521190599996
 20
825.0116879653
 11
-200.5581196394842
 21
825.0116879653
  0
LINE
  5
4F9
100
AcDbEntity
  8
frame
  6
ByLayer
 62
  256
370
   -1
100
AcDbLine
 10
-200.5581196394842
 20
374.9870816661
 11
3.090521212600005
 21
374.9870816661
  0
LINE
  5
4FA
100
AcDbEntity
  8
frame
  6
ByLayer
 62
  256
370
   -1
100
AcDbLine
 10
3.090521212600003
 20
349.9870816661
 11
-200.5581196394842
 21
349.9870816661
  0
LINE
  5
4FB
100
AcDbEntity
  8
frame
  6
ByLayer
 62
  256
370
   -1
100
AcDbLine
 10
-315.5964848192841
 20
399.9870816630652
 11
-200.5581196394842
 21
349.9870816661
  0
LINE
  5
4FC
100
AcDbEntity
  8
frame
  6
ByLayer
 62
  256
370
   -1
100
AcDbLine
 10
-315.5964848192841
 20
424.9870816634883
 11
-200.5581196394842
 21
374.9870816661
  0
LINE
  5
4FD
100
AcDbEntity
  8
frame
  6
ByLayer
 62
  256
370
   -1
100
AcDbLine
 10
-1119.9616348202
 20
424.9870816568173
 11
-315.5964848200242
 21
424.98708166381
  0
LINE
  5
4FE
100
AcDbEntity
  8
frame
  6
ByLayer
 62
  256
370
   -1
100
AcDbLine
 10
-1119.9616348202
 20
399.9870816567815
 11
-315.5964848199815
 21
399.9870816633683
  0
LINE
  5
4FF
100
AcDbEntity
  8
frame
  6
ByLayer
 62
  256
370
   -1
100
AcDbLine
 10
-315.5964848192841
 20
775.011687968402
 11
-200.5581196394842
 21
825.0116879653
  0
LINE
  5
500
100
AcDbEntity
  8
frame
  6
ByLayer
 62
  256
370
   -1
100
AcDbLine
 10
-200.5581196394842
 20
849.9973800506762
 11
-315.5964848192841
 21
800.0116879689044
  0
LINE
  5
501
100
AcDbEntity
  8
frame
  6
ByLayer
 62
  256
370
   -1
100
AcDbLine
 10
-1119.9616348202
 20
800.0116879763946
 11
-315.5964848201152
 21
800.0116879685432
  0
LINE
  5
502
100
AcDbEntity
  8
frame
  6
ByLayer
 62
  256
370
   -1
100
AcDbLine
 10
-1119.9616348202
 20
775.0116879763514
 11
-315.5964848201666
 21
775.0116879680186
  0
LINE
  5
503
100
AcDbEntity
  8
frame
  6
ByLayer
 62
  256
370
   -1
100
AcDbLine
 10
-383.6640608132295
 20
424.987081661418
 11
-383.6640608132295
 21
775.0116879687237
  0
LINE
  5
504
100
AcDbEntity
  8
frame
  6
ByLayer
 62
  256
370
   -1
100
AcDbLine
 10
-719.9616348202001
 20
775.0116879722076
 11
-719.9616348202001
 21
424.9870816602946
  0
LINE
  5
505
100
AcDbEntity
  8
frame
  6
ByLayer
 62
  256
370
   -1
100
AcDbLine
 10
-744.9616348202001
 20
775.0116879724665
 11
-744.9616348202001
 21
424.9870816600773
  0
CIRCLE
  5
506
100
AcDbEntity
  8
frame
  6
ByLayer
 62
  256
370
   -1
100
AcDbCircle
 10
-396.5954619920133
 20
-222.4427915058832
 40
12.7
  0
INSERT
  5
507
100
AcDbEntity
  8
internals
  6
ByLayer
 62
  256
370
   -1
100
AcDbBlockReference
  2
batteryT
 10
-350
 20
900
 30
0
 41
1
 42
1
 43
0
 50
0
 70
    1
 71
    1
 44
1
 45
1
  0
INSERT
  5
508
100
AcDbEntity
  8
internals
  6
ByLayer
 62
  256
370
   -1
100
AcDbBlockReference
  2
WheelSide
 10
-581.4715438186
 20
-403.5042445866
 30
0
 41
1
 42
1
 43
0
 50
0
 70
    1
 71
    1
 44
1
 45
1
  0
CIRCLE
  5
509
100
AcDbEntity
  8
frame
  6
ByLayer
 62
  256
370
   -1
100
AcDbCircle
 10
650.3754596915722
 20
-404.8150570592093
 40
12.7
  0
CIRCLE
  5
50A
100
AcDbEntity
  8
internals
  6
ByLayer
 62
  256
370
   -1
100
AcDbCircle
 10
650.3754596915722
 20
-404.8150570592093
 40
65
  0
LINE
  5
50B
100
AcDbEntity
  8
Construct
  6
ByLayer
 62
  256
370
   -1
100
AcDbLine
 10
-1470
 20
-610
 11
1650
 21
-610
  0
INSERT
  5
50C
100
AcDbEntity
  8
internals
  6
ByLayer
 62
  256
370
   -1
100
AcDbBlockReference
  2
WheelTop
 10
650.375459691586
 20
328.2700779959901
 30
0
 41
1
 42
1
 43
0
 50
0
 70
    1
 71
    1
 44
0
 45
0
  0
INSERT
  5
50D
100
AcDbEntity
  8
internals
  6
ByLayer
 62
  256
370
   -1
100
AcDbBlockReference
  2
WheelTop
 10
650.991929321626
 20
875.2224827546305
 30
0
 41
1
 42
1
 43
0
 50
0
 70
    1
 71
    1
 44
1
 45
1
  0
INSERT
  5
50E
100
AcDbEntity
  8
internals
  6
ByLayer
 62
  256
370
   -1
100
AcDbBlockReference
  2
WheelTop
 10
-581.4715438186
 20
335.5264392662463
 30
0
 41
1
 42
1
 43
0
 50
0
 70
    1
 71
    1
 44
1
 45
1
  0
INSERT
  5
50F
100
AcDbEntity
  8
internals
  6
ByLayer
 62
  256
370
   -1
100
AcDbBlockReference
  2
WheelTop
 10
-581.4715438185999
 20
864.5023327505917
 30
0
 41
1
 42
1
 43
0
 50
0
 70
    1
 71
    1
 44
1
 45
1
  0
INSERT
  5
510
100
AcDbEntity
  8
internals
  6
ByLayer
 62
  256
370
   -1
100
AcDbBlockReference
  2
WheelSide
 10
650.3754596915722
 20
-404.8150570592093
 30
0
 41
1
 42
1
 43
0
 50
0
 70
    1
 71
    1
 44
1
 45
1
  0
LINE
  5
511
100
AcDbEntity
  8
Construct
  6
ByLayer
 62
  256
370
   -1
100
AcDbLine
 10
745.3440017030273
 20
48.29012101972656
 11
-852.9026092867017
 21
-261.6146355511383
  0
CIRCLE
  5
512
100
AcDbEntity
  8
frame
  6
ByLayer
 62
  256
370
   -1
100
AcDbCircle
 10
724.0187573041969
 20
-279.4399295803225
 40
12.5
  0
LINE
  5
513
100
AcDbEntity
  8
frame
  6
ByLayer
 62
  256
370
   -1
100
AcDbLine
 10
562.727504305483
 20
-267.2525481217478
 11
562.726989331803
 21
-525.0535197504211
  0
LINE
  5
514
100
AcDbEntity
  8
frame
  6
ByLayer
 62
  256
370
   -1
100
AcDbLine
 10
587.7275125731613
 20
-270.0372784898519
 11
587.7275125731612
 21
-524.426462722864
  0
CIRCLE
  5
515
100
AcDbEntity
  8
frame
  6
ByLayer
 62
  256
370
   -1
100
AcDbCircle
 10
652.0713923026182
 20
-534.1006075737678
 40
12.5
  0
LINE
  5
516
100
AcDbEntity
  8
frame
  6
ByLayer
 62
  256
370
   -1
100
AcDbLine
 10
-94.99999999999976
 20
-393.4954672395761
 11
562.7273028653999
 21
-393.4954672395762
  0
ENDSEC
  0
SECTION
  2
OBJECTS
  0
DICTIONARY
  5
C
330
0
100
AcDbDictionary
281
    1
  3
ACAD_GROUP
350
D
  0
DICTIONARY
  5
D
330
C
100
AcDbDictionary
281
    1
  0
ENDSEC
  0
EOF
